Song name
# A B C D E F G H I J K L M N O P Q R S T U V W X Y Z

Less Than Jake - Were All Dudes tab

-------------------------------------------------------------------------------
			 We're All Dudes - Less Than Jake
-------------------------------------------------------------------------------
Tabbed by:Mike T
Email: mtred@comcast.net

Theme song to the Nickolodeon movie Good Burger (1997) starring Kenan Thompson and Kel Mitchell.

      Ignore the bad timing if you can.
Tuning: EADGBe
 
 Intro Riff 1 0:00-0:15 (clean)  

e|-5-xx-5-xxx-5x5-5s7-xx-7-xxx-5x5-5-xx------------------|
B|-5-xx-5-xxx-7x7-7s9-xx-9-xxx-7x7-7-xx------------------|
G|-6-xx-6-xxx-7x7-7s9-xx-9-xxx-7x7-7-xx------------------|x4
D|-7-xx-7-xxx-7x7-7s9-xx-9-xxx-7x7-7-xx------------------|
A|-------------------------------------------------------|
E|-------------------------------------------------------|
 
 Verse 1 0:15-0:29 increased speed. (clean)

e|-55x5x5x5x5x5x5xx55x5x5x5s77x7x7x7-----55x5x5x5x5x5x5xx55x5x5x5------------|
B|-55x5x5x5x5x5x5xx77x7x7x7s99x9x9x9-----55x5x5x5x5x5x5xx77x7x7x7------------|
G|-66x6x6x6x6x6x6xx77x7x7x7s99x9x9x9-x3--66x6x6x6x6x6x6xx77x7x7x7------------|
D|-77x7x7x7x7x7x7xx77x7x7x7s99x9x9x9-----77x7x7x7x7x7x7xx77x7x7x7-99999999---|
A|----------------------------------------------------------------99999999---|
E|----------------------------------------------------------------77777777---|
 
     Chorus 1 0:29-0:36 (distortion)

e|----------------------------------------|
B|----------------------------------------|
G|----------7-77-777-9-99-999-7-77-777----|x2
D|-7-77-777-7-77-777-9-99-999-7-77-777----|
A|-7-77-777-5-55-555-7-77-777-5-55-555----|
E|-5-55-555-------------------------------|

  Verse 2 0:36-0:50 increased speed(clean)

e|-55x5x5x5x5x5x5xx55x5x5x5s77x7x7x7-----55x5x5x5x5x5x5xx55x5x5x5------------|
B|-55x5x5x5x5x5x5xx77x7x7x7s99x9x9x9-----55x5x5x5x5x5x5xx77x7x7x7------------|
G|-66x6x6x6x6x6x6xx77x7x7x7s99x9x9x9-x3--66x6x6x6x6x6x6xx77x7x7x7------------|
D|-77x7x7x7x7x7x7xx77x7x7x7s99x9x9x9-----77x7x7x7x7x7x7xx77x7x7x7-99999999---|
A|----------------------------------------------------------------99999999---|
E|----------------------------------------------------------------77777777---|

  Chorus 2 0:50-1:04 (distortion)

e|----------------------------------------|
B|----------------------------------------|
G|----------7-77-777-9-99-999-7-77-777----|x4
D|-7-77-777-7-77-777-9-99-999-7-77-777----|
A|-7-77-777-5-55-555-7-77-777-5-55-555----|
E|-5-55-555-------------------------------|

  Intro Riff 2 1:04-1:19 (clean)

e|-5-xx-5-xxx-5x5-5s7-xx-7-xxx-5x5-5-xx------------------|
B|-5-xx-5-xxx-7x7-7s9-xx-9-xxx-7x7-7-xx------------------|
G|-6-xx-6-xxx-7x7-7s9-xx-9-xxx-7x7-7-xx------------------|x4
D|-7-xx-7-xxx-7x7-7s9-xx-9-xxx-7x7-7-xx------------------|
A|-------------------------------------------------------|
E|-------------------------------------------------------|

  Breakdown 1:120-1:34 (clean)

e|-x-9--x-9--x-9--x-9--x-7-x-7-x-{5-x-5-x-5-x-5-x-5-x-5-x-7-x-7}-------------|
B|-x-10-x-10-x-10-x-10-x-7-x-7-x-{5-x-5-x-5-x-5-x-5-x-5-x-7-x-7}-------------|
G|-x-9--x-9--x-9--x-9--x-7-x-7-x-{6-x-6-x-6-x-6-x-6-x-6-x-7-x-7}-------------|
D|-----------------------9---9---{7---7---7---7---7---7---9---9}-------------|
A|---------------------------------------------x3----------------------------|
E|---------------------------------------------------------------------------|

  Verse 3 0:134-1:49(clean)
                                           (distortion)
e|-55x5x5x5x5x5x5xx55x5x5x5s77x7x7x7---------------------------|
B|-55x5x5x5x5x5x5xx77x7x7x7s99x9x9x9---------------------------|
G|-66x6x6x6x6x6x6xx77x7x7x7s99x9x9x9-x3--------7-----9-----7---|
D|-77x7x7x7x7x7x7xx77x7x7x7s99x9x9x9-----7-----7-----9-----7---|
A|---------------------------------------7-----5-----7-----5---|
E|---------------------------------------5---------------------|
 
  Chorus 3 1:49-1:56 (distortion)

e|----------------------------------------|
B|----------------------------------------|
G|----------7-77-777-9-99-999-7-77-777----|
D|-7-77-777-7-77-777-9-99-999-7-77-777----|
A|-7-77-777-5-55-555-7-77-777-5-55-555----|
E|-5-55-555-------------------------------|
  
  On the second time you repeat the chorus

e|------------------------------------------|
B|------------------------------------------|
G|----------7-77-777-9-99-999-7-77-777------|
D|-7-77-777-7-77-777-9-99-999-7-77-777--7~--|
A|-7-77-777-5-55-555-7-77-777-5-55-555--7~--|
E|-5-55-555-----------------------------5~--|
                                       (hold)
  Intro Riff 3   2:03-2:11 (clean)

e|-5-xx-5-xxx-5x5-5s7-xx-7-xxx-5x5-5-xx------------------|
B|-5-xx-5-xxx-7x7-7s9-xx-9-xxx-7x7-7-xx------------------|
G|-6-xx-6-xxx-7x7-7s9-xx-9-xxx-7x7-7-xx------------------|x2
D|-7-xx-7-xxx-7x7-7s9-xx-9-xxx-7x7-7-xx------------------|
A|-------------------------------------------------------|
E|-------------------------------------------------------|

 Chorus 4 2:11-2:25 (distortion)

e|-------------------------------------------------------------------------------|
B|-------------------------------------------------------------------------------|
G|----------7-77-777-9-99-999-7-77-777-------------7-77-777-9-99-999-7-77-777----|
D|-7-77-777-7-77-777-9-99-999-7-77-777-x3-7-77-777-7-77-777-9-99-999-7-77-777-7~-|
A|-7-77-777-5-55-555-7-77-777-5-55-555----7-77-777-5-55-555-7-77-777-5-55-555-7~-|
E|-5-55-555-------------------------------5-55-555----------------------------5~-|
 
  End on

e|------------------|
B|------------------|
G|------------------|
D|-7~---------------|
A|-7~---------------|
E|-5~---------------|

 Enjoy, email me with comments.

| /  slide up
| \  slide down
| h  hammer-on
| p  pull-off
| ~  vibrato
| +  harmonic
| x  Mute note
===============================================================================
Tap to rate this tab
# A B C D E F G H I J K L M N O P Q R S T U V W X Y Z