Song name
# A B C D E F G H I J K L M N O P Q R S T U V W X Y Z

Less Than Jake - Kehoe tab

Less Than Jake - Kehoe
Tabbed By: Darin
EMail: dpimp11@hotmail.com

*: palm mute
/: slide

Intro(guitar2)
-------------------------------------------------------------
-------------------------------------------------------------
-------------------------------------------------------------
-----7-----7----------77--7777-------------------------------
--7--5--7--5--77--77--55--5555-------------------------------
--5-----5-----55--55-----------------------------------------

Intro(lead guitar1)
------5-------------3-----3--5------------------------------(4X)
----5---5--3--2--3-----3--------3---------------------------
--2---------------------------------------------------------
------------------------------------------------------------
------------------------------------------------------------
------------------------------------------------------------

Intro 2
------------------------------------------------------------
------------------------------------------------------------
------------------------------------------------------------
-----7--12--12-9--7-------9/7--12--12-9--7------------------
--7--5--10--9--7--5----7--7/5--10--9--7--5------------------
--5--------------------5------------------------------------

Verse(hit each cord multiple times)
------------------------------------------------------------
------------------------------------------------------------
------------------------------------------------------------
-----7--------------------------7---------------------------
--7--5--5--7--9--5-5555---7--5--5--7--7--9--5--55-----------
--5-----3--5--7--3-3333---5--3-----5--5--7--3--33-----------
********************************************** !!
opinions^bothrnotenough^ becomereminder^anthem^years^

Chorus
------------------------------------------------------------
------------------------------------------------------------
------------------------------------------------------------
-----9/7--12--12-9--7--------9/7--12-12--9--7---------------
--7--7/5--10--9--7--5-----7--7/5--10--9--7--5---------------
--5-----------------------5---------------------------------
Tap to rate this tab
 
# A B C D E F G H I J K L M N O P Q R S T U V W X Y Z