Song name
# A B C D E F G H I J K L M N O P Q R S T U V W X Y Z

Less Than Jake - One Last Cigarette tab

#----------------------------------PLEASE NOTE--------------------------------#
#This file is the author's own work and represents their interpretation ofthe #
#song. You may only use this file for private study, scholarship, or research.#
#-----------------------------------------------------------------------------#
#-- File created with Instab - http://www.pconline.com/~smcarey/instab.html --#
#-----------------------------------------------------------------------------#

Author/Artist: less than jake
Title: one last cigarette
Transcribed by: paul
Email: aint_life_a_bitc_h@hotmail.com

the ska verse may sound crap on its own
but trust me its very right
when played along to the cd!(the bass implys the chord changes) enjoy
(sorry but figure the order out!)
i cant be bothered right now!

-|-----------------|-----|-33x3x3x3--33x3x3x3---33x3x3x3---11x1x1x1--|-------
-|-----------------|-----|-55x5x5x5--33x3x3x3---55x5x5x5---11x1x1x1--|-------
-|-10---9--7--555--|-----|-555x5x5x--44x4x4x4---55x5x5x5---22x2x2x2--|-------
-|-10---9--7--555--|-----|-55x5x5x5--55x5x5x5---55x5x5x5---33x3x3x3--|-------
-|--8---7--5--333--|-x4--|-------------------------------------------|-------
-|-----------------|-----|-------------------------------------------|-------
     intro                 verse                                             

-|------------------------------|-----------------------------------|--------
-|------------------------------|-----------------------------------|--------
-|--------------x55555----------|--77777-99-10----------------------|--------
-|3------3------x55555--x55555--|--77777-99-10-x8---10-------5------|--------
-|3------3-x16--x33333--x55555--|--99999-77--8------10-x16---5-x16--|--------
-|1------1--------------x33333--|--------------------8-------3------|--------
   let ring then                                                              

-|------------------------------------------------|-------------|------------
-|------------------------------------------------|-------------|------------
-|--55555555--------------555555555---------------|---------5---|------------
-|--55555555---55555555---555555555---333333333---|-3-3-3---5---|------------
-|--33333333---55555555---333333333---333333333---|-3-3-3---3---|------------
-|-------------33333333---------------111111111---|-1-1-1-------|------------
   last chorus                                      end on
Tap to rate this tab
 
# A B C D E F G H I J K L M N O P Q R S T U V W X Y Z