Guitaretab - guitar tabs
Song name
# A B C D E F G H I J K L M N O P Q R S T U V W X Y Z

Less Than Jake - Suburban Myth tab

-----------------------------------------------------------------------------
			     Suburban Myth - Less Than Jake
-----------------------------------------------------------------------------
Tabbed by: Jacob Pingel
Email: Clerksguy55

Tuning: Standard

I am a die-hard LTJ fan and this is one of my favorite song by them.

Repeat (x2)
e|----------------------------------|
B|----------------------------------|
G|--7--5----7777-7--5--5-----7777-7-|
D|--7--5--5-7777-7--5--5--5--7777-7-|
A|--5--3--5-5555-5--3--3--5--5555-5-|
E|--------3---------------3---------|

Play in in ska...(down strums=muted...up strums=played)
Also, play (x8)

e|--3--3--3--3--3--3--3--3--3--3--3--3--3--3-|
B|--2--2--2--2--5--5--5--5--3--3--3--3--3--3-|
G|--3--3--3--3--5--5--5--5--4--4--4--4--4--4-|
D|-------------------------------------------|
A|-------------------------------------------|
E|-------------------------------------------|

e|-------------------------------------------------------------------------| 
B|-------------------------------------------------------------------------| 
G|--5555----5-5-5---------------5-5-5---------5-5-5------------------------| 
D|--5555----5-5-5--5-5-5-3-3-3--5-5-5--7-7-7--5-5-5--3-3-3-3-3-3-----------| 
A|--3333----3-3-3--5-5-5-3-3-3--3-3-3--7-7-7--3-3-3--3-3-3-3-3-3-----------| 
E|-----------------3-3-3-1-1-1---------5-5-5---------1-1-1-1-1-1-----------|

e|--------------------------------------------------------------------|
B|--------------------------------------------------------------------| 
G|-5-5-5-------------5-5-5-------------5-5-5-5-5-5--------------------| 
D|-5-5-5-5-5-5-3-3-3-5-5-5-7-7-7-7-7-7-5-5-5-5-5-5--------------------| 
A|-3-3-3-5-5-5-3-3-3-3-3-3-7-7-7-7-7-7-3-3-3-3-3-3--------------------| 
E|-------3-3-3-1-1-1-------5-5-5-5-5-5--------------------------------|
[ Tab from: http://www.guitaretab.com/l/less-than-jake/51754.html ]
e|--------------------------------------------------------------------| 
B|--------------------------------------------------------------------| 
G|-7-7-7-5-5-5-------------------5-5-5-5-5-5---7-7-7-7-7-7------------| 
D|-7-7-7-5-5-5--5-5-5-5-5-5------5-5-5-5-5-5---7-7-7-7-7-7------------| 
A|-5-5-5-3-3-3--5-5-5-5-5-5------3-3-3-3-3-3---5-5-5-5-5-5------------| 
E|--------------3-3-3-3-3-3-------------------------------------------|

e|------------------------------------------------------------------------| 
B|------------------------------------------------------------------------| 
G|-7777777777--5-5-5---------------5-5-5---7-7-7-7-7-7-5-5-5-5-5-5--------| 
D|-7777777777--5-5-5--5-5-5-3-3-3--5-5-5---7-7-7-7-7-7-5-5-5-5-5-5-5-5-5-5| 
A|-5555555555--3-3-3--5-5-5-3-3-3--3-3-3---5-5-5-5-5-5-3-3-3-3-3-3-5-5-5-5| 
E|--------------------3-3-3-1-1-1----------------------------------3-3-3-3|

Then.....

e|--------------------------------|
B|--------------------------------|
G|--7--5----7777-7--5--5-----7777-|
D|--7--5--5-7777-7--5--5--5--7777-|
A|--5--3--5-5555-5--3--3--5--5555-|
E|--------3---------------3-------|






*****************************************************************************
Lyrics
_____________________________________________________________________________

So let's hit the streets tonight....I'll show you where I lost my job, and where
I got chased by the cops

We'll jump the fence right off of thirteenth and ten..to see where we played our
first show......

I told you so........

I told you...everybody loses sight of...everybody loses sight of, everybody loses
sight of all the how its ever been and ever was

So let's hit the streets tonight..and i'll show you where I drank on the job,
and hung out in that parking lot...left at the light, there's box fifteenth on
the right, and that's the place that we call home.

I told you so...

I told you, everybody loses sight of..everybody loses sight, everybody loses
sight of all the how its been and ever was...thta place you'll never get a chance
to know....and all the people bring you years you could've known..

It makes me wonder what your seeing, it's almost how....it's almost how.
*****************************************************************************

That's all i know so far. I'm still trying to figure out the chorus and stuff but,
so far this is right...i think. Please E-mail me if there are any problems........enjoy!
Related for Suburban Myth tab