Song name
# A B C D E F G H I J K L M N O P Q R S T U V W X Y Z

Less Than Jake - Nervous In The Alley tab

This is the brass lead at the beginning transcribed for guitar.

(A)

e|-------------------------------------------------------------------------|
B|--5-8-5------------------5-----------------------------------------------|
G|--------7---5-7-5----5-7---7--5-7-5--------------------------------------|
D|------------------7-----------------7---7-8-7-5-3------------------------|
A|-------------------------------------------------------------------------|
E|-------------------------------------------------------------------------|

(B)

e|-------------------------------------------------------------------------|
B|--5-8-5------------------5-----------------------------------------------|
G|--------7---5-7-5----5-7---7--5-7-5-------------5------------------------|
D|------------------7-----------------7---7-8-7-5--------------------------|
A|-------------------------------------------------------------------------|
E|-------------------------------------------------------------------------|

(A) X1
(B) X1
(A) X2
Tap to rate this tab
 
# A B C D E F G H I J K L M N O P Q R S T U V W X Y Z