Song name
# A B C D E F G H I J K L M N O P Q R S T U V W X Y Z

Less Than Jake - Sleep It Off Acoustic tab

Sleep It Off (Acoustic)
Less Than Jake

Tuning: ebgDAE

Intro / Chorus
|----------------|
|----------------|
|------------9---|   x2
|--------7---9---|   
|---4----7---7---|
|---2----5-------|

|-------------------------------|
|-------------------------------|
|---------------------9x9-7x7---| 
|---4----7----9x9-7x7-7x7-9x9---|
|---4----7----7x7-5x5-7x7-9x9---|
|---2----5------------5x5-7x7---|

Verse (2nd and 4th time omit last 4 chords) 
|---7---5-5-5-5-5-5-5-5-5-5-5-5---|
|---9---5-5-5-5-5-5-5-5-5-5-5-5---|
|---9---7-7-6-6-7-7-6-6-7-7-6-6---|   x4
|---9---7-7-7-7-7-7-7-7-7-7-7-7---|
|---7---5-5-7-7-5-5-7-7-5-5-7-7---|
|---7---5-5-5-5-5-5-5-5-5-5-5-5---|

Prechorus / Bridge (on Prechorus before Outro, play only 1st 3 chords)
|-------------------------------|
|-------------------------------|
|-------6---7---9---7-------9---|
|---9---6---7---9---7---7---9---|
|---9---4---5---7---5---7---7---|
|---7-------------------5-------|

Outro
|---------------------|
|---------------------|
|---9x9-7x7-----------|   x4 
|---9x9-7x7-7x7-9x9---|
|---7x7-5x5-7x7-9x9---|
|-----------5x5-7x7---|
Tap to rate this tab
 
# A B C D E F G H I J K L M N O P Q R S T U V W X Y Z