Song name
# A B C D E F G H I J K L M N O P Q R S T U V W X Y Z

Less Than Jake - Showbiz Science Who Cares tab

              -------------------------------------------------
                 Less Than Jake-Showbiz? Science? Who Cares?
              -------------------------------------------------


Tabbed by: Steven Bryant (elix997)
E-Mail-elix997@hotmail.com
Tuning-EADGBE

Legend:

x-muted string

Intro:

e----------------------------------------|
b----------------------------------------|
g--7-x-x-x-x------7-x-x-x-x--------------|
d--7-x-x-x-x-5----7-x-x-x-x-7------------|
a--5-x-x-x-x-5----5-x-x-x-x-7------------|
e------------3--------------5------------|

e----------------------------------------|
b----------------------------------------|
g--7-x-x-x-x-----------------------------|
d--7-x-x-x-x-5----7-7-7-7-7--------------|
a--5-x-x-x-x-5----7-7-7-7-7--------------|
e------------3----5-5-5-5-5--------------|

Verse (figure out rhythm yourself..very easy):

e----------------------------------------|
b----------------------------------------|
g--7-----7-----7-----5-----5-------------|
d--7--5--7--5--7--5--5--5--5--5----------|
a--5--5--5--5--5--5--3--5--3--5----------|
e-----3-----3-----3-----3-----3----------|

e----------------------------------------|
b----------------------------------------|
g--7-x-x-x-x------7-x-x-x-x--------------|
d--7-x-x-x-x-5----7-x-x-x-x-7------------|
a--5-x-x-x-x-5----5-x-x-x-x-7------------|
e------------3--------------5------------|

e----------------------------------------|
b----------------------------------------|
g--7-----7-----7-----5-----5-------------|
d--7--5--7--5--7--5--5--5--5--5----------|
a--5--5--5--5--5--5--3--5--3--5----------|
e-----3-----3-----3-----3-----3----------|

e----------------------------------------|
b----------------------------------------|
g--7-x-x-x-x------7-x-x-x-x--------------|
d--7-x-x-x-x-5----7-x-x-x-x-7------------|
a--5-x-x-x-x-5----5-x-x-x-x-7------------|
e------------3--------------5------------|

Chorus:

e----------------------------------------|
b----------------------------------------|
g--7-7-7-7-7-7-7-7-----------------------|
d--7-7-7-7-7-7-7-7-5-5-5-5-5-5-5-5-------|
a--5-5-5-5-5-5-5-5-5-5-5-5-5-5-5-5-------|
e------------------3-3-3-3-3-3-3-3-------|

e----------------------------------------|
b----------------------------------------|
g--7-7-7-7-7-7-7-7-5-5-5-5-5-5-5-5-------|
d--7-7-7-7-7-7-7-7-5-5-5-5-5-5-5-5-------|
a--5-5-5-5-5-5-5-5-3-3-3-3-3-3-3-3-------|
e----------------------------------------|

e----------------------------------------|
b----------------------------------------|
g--5-5-5-----------5-5-5-----------------|
d--5-5-5--5-5-5-5--5-5-5--5-5-5-5--------|
a--2-2-2--5-5-5-5--3-3-3--5-5-5-5--------|
e---------3-3-3-3---------3-3-3-3--------|

Post Chorus ("every single day"):

e----------------------------------------|
b----------------------------------------|
g--7-7-7-7-----------5-5-5-5-------------|
d--7-7-7-7--5-5-5-5--5-5-5-5--5-5-5-5----|
a--5-5-5-5--5-5-5-5--3-3-3-3--5-5-5-5----|
e-----------3-3-3-3-----------3-3-3-3----|


That's about the size of it..


Questions? Comments?
Hit me up:
E-mail-elix997@hotmail.com
AIM-stevn53091
Tap to rate this tab
 
# A B C D E F G H I J K L M N O P Q R S T U V W X Y Z