Song name
# A B C D E F G H I J K L M N O P Q R S T U V W X Y Z

Less Than Jake - Magnetic North tab

Artist - Less Than Jake
Album - Borders & Boundaries
Song - Magnetic North

Tuning - Standard (E A D G B E)

Note - The strumming on the verse and chorus are different, i have only
put the root chords in.

Intro
-----

Wait 4 bars then...


E|---3-----------3-|---0---1-0---0h1-|
B|-1---------------|-1---1-----------|
G|-----------------|-----------------|
D|-----------------|-----------------|
A|-----------------|-----------------|
E|-----------------|-----------------| x4

Intro / Chorus
--------------

E|-----------------|-----------------|
B|-----------------|-----------------|
G|-5-5-5-5-5-5-5-5-|---------3-3-3-3-|
D|-5-5-5-5-5-5-5-5-|-3-3-3-3-3-3-3-3-|
A|-3-3-3-3-3-3-3-3-|-3-3-3-3-1-1-1-1-|
E|-----------------|-1-1-1-1---------| x4

Verse

E|-----------------|-----------------|-----------------|-----------------|
B|-----------------|-----------------|-----------------|-----------------|
G|-5---------------|-----------------|-----------------|-----------------|
D|-5---------------|-----------------|-----------------|-----------------|
A|-3---------------|-----------------|-----------------|-----------------|
E|-----------------|-----------------|-----------------|-----------------|

E|-----------------|-----------------|-----------------|-----------------|
B|-----------------|-----------------|-----------------|-----------------|
G|-5------5-5----5-|-5------5-5----2-|-5------5-5----5-|---------3-3-3-3-|
D|-5------5-5----5-|-5------5-5----2-|-5------5-5----5-|-3-3-3-3-3-3-3-3-|
A|-3------3-3----3-|-3------3-3----0-|-3------3-3----3-|-3-3-3-3-1-1-1-1-|
E|-----------------|-----------------|-----------------|-1-1-1-1---------|

Chorus
------

E|-----------------|-----------------|
B|-----------------|-----------------|
G|-5-5-5-5-5-5-5-5-|---------3-3-3-3-|
D|-5-5-5-5-5-5-5-5-|-3-3-3-3-3-3-3-3-|
A|-3-3-3-3-3-3-3-3-|-3-3-3-3-1-1-1-1-|
E|-----------------|-1-1-1-1---------| x4

E|-----------------|-----------------|
B|-----------------|-----------------|
G|-3-x-x-x---------|-3-x-x-x---------|
D|-3-x-x-x-3-x-x-x-|-3-x-x-x-3-x-x-x-|
A|-1-x-x-x-3-x-x-x-|-1-x-x-x-3-x-x-x-|
E|---------1-x-x-x-|---------1-x-x-x-|

E|-----------------|-----------------|
B|-----------------|-----------------|
G|-5-5-5-5-5-5-5-5-|---------3-3-3-3-|
D|-5-5-5-5-5-5-5-5-|-3-3-3-3-3-3-3-3-|
A|-3-3-3-3-3-3-3-3-|-3-3-3-3-1-1-1-1-|
E|-----------------|-1-1-1-1---------| x2

Pre-Verse
---------

E|---3-----------3-|---0---1-0---0h1-|
B|-1---------------|-1---1-----------|
G|-----------------|-----------------|
D|-----------------|-----------------|
A|-----------------|-----------------|
E|-----------------|-----------------| x2

Verse
-----

E|-----------------|-----------------|-----------------|-----------------|
B|-----------------|-----------------|-----------------|-----------------|
G|-5---------------|-----------------|-----------------|-----------------|
D|-5---------------|-----------------|-----------------|-----------------|
A|-3---------------|-----------------|-----------------|-----------------|
E|-----------------|-----------------|-----------------|-----------------|

E|-----------------|-----------------|-----------------|-----------------|
B|-----------------|-----------------|-----------------|-----------------|
G|-5------5-5----5-|-5------5-5----2-|-5------5-5----5-|---------3-3-3-3-|
D|-5------5-5----5-|-5------5-5----2-|-5------5-5----5-|-3-3-3-3-3-3-3-3-|
A|-3------3-3----3-|-3------3-3----0-|-3------3-3----3-|-3-3-3-3-1-1-1-1-|
E|-----------------|-----------------|-----------------|-1-1-1-1---------|

Chorus
------

E|-----------------|-----------------|
B|-----------------|-----------------|
G|-5-5-5-5-5-5-5-5-|---------3-3-3-3-|
D|-5-5-5-5-5-5-5-5-|-3-3-3-3-3-3-3-3-|
A|-3-3-3-3-3-3-3-3-|-3-3-3-3-1-1-1-1-|
E|-----------------|-1-1-1-1---------| x4

Interlude
---------

E|-----------------|-----------------|
B|-----------------|-----------------|
G|---------------2-|-3---------------|
D|-5-------------2-|-3---------------|
A|-5-------------0-|-1---------------|
E|-3---------------|-----------------|

E|-----------------|-----------------|
B|-----------------|-----------------|
G|-5-5-----------5-|-3---3-----------|
D|-5-5-----------5-|-3---3---3-3-3-3-|
A|-3-3-----------3-|-1---1---3-3-3-3-|
E|-----------------|---------1-1-1-1-| x2

E|-----------------|-----------------|
B|-----------------|-----------------|
G|-5-5-5-5-5-5-5-5-|-5-3-3-3-3-------|
D|-5-5-5-5-5-5-5-5-|-5-3-3-3-3-3-3-3-|
A|-3-3-3-3-3-3-3-3-|-3-1-1-1-1-3-3-3-|
E|-----------------|-----------1-1-1-|

E|-----------------|-----------------|
B|-----------------|-----------------|
G|-5-5-5-5-5-5-5-5-|-3-3-3-3---------|
D|-5-5-5-5-5-5-5-5-|-3-3-3-3-3-3-3-3-|
A|-3-3-3-3-3-3-3-3-|-1-1-1-1-3-3-3-3-|
E|-----------------|---------1-1-1-3-|

Much feedback here                                     On last time, pickslide on last bar

E|-----------------|-----------------|-----------------|-----------------|
B|-----------------|-----------------|-----------------|-----------------|
G|-5---------------|-----------------|-----------------|-----------------|
D|-5---------------|-----------------|-----------------|-----------------|
A|-3---------------|-----------------|-----------------|-----------------|
E|-----------------|-----------------|-----------------|-----------------| x2

Chorus
------

E|-----------------|-----------------|
B|-----------------|-----------------|
G|-5-5-5-5-5-5-5-5-|---------3-3-3-3-|
D|-5-5-5-5-5-5-5-5-|-3-3-3-3-3-3-3-3-|
A|-3-3-3-3-3-3-3-3-|-3-3-3-3-1-1-1-1-|
E|-----------------|-1-1-1-1---------| x4

Outro
-----

E|-----------------|-----------------|
B|-----------------|-----------------|
G|-5-5---5-5-5---5-|-3-3---3-----3-3-|
D|-5-5---5-5-5---5-|-3-3---3-3-3-3-3-|
A|-3-3---3-3-3---3-|-1-1---1-3-3-1-1-|
E|-----------------|---------1-1-----| x4

E|-----------------|
B|-----------------|
G|-5-5-------------|
D|-5-5-------------|
A|-3-3-------------|
E|-----------------|

Enjoy!
Tap to rate this tab
# A B C D E F G H I J K L M N O P Q R S T U V W X Y Z