Song name
# A B C D E F G H I J K L M N O P Q R S T U V W X Y Z

Less Than Jake - A Still Life Franchise tab

-------------------------------------------------------------------------------
			     Less Than Jake - A Still Life Franchise
-------------------------------------------------------------------------------
Tabbed by: Andre Lindberg		
Email: andre.lindberg@hotmail.com

Tuning: standard


The intro goes as written below..

e|---6-----------6-----------------------------------------------------------|
B|----7-----------7----------7-7-7-7-----------------------------------------|
G|-----8--8--------8--8------8-8-8-8-----------------------------------------|
D|------8--8--------8--8-----8-8-8-8-----------------------------------------|
A|-------6-----------6-------------------------------------------------------|
E|---------------------------------------------------------------------------|

the verse is simply Dm and B played in a ska rythm... kind of like this
   
   d u d u d u d u d u d u d u d u   d u d u d u d u d u d u d u d u
e|-x-6-x-6-x-6-x-6-x-6-x-6-x-6-6-6---x-2-x-2-x-2-x-2-x-2-x-2-x-2-2-2---------|
B|-x-7-x-7-x-7-x-7-x-7-x-7-x-7-7-7---x-4-x-4-x-4-x-4-x-4-x-4-x-4-4-4---------|
G|-x-8-x-8-x-8-x-8-x-8-x-8-x-8-8-8---x-4-x-4-x-4-x-4-x-4-x-4-x-4-4-4---------|
D|---------------------------------------------------------------------------|
A|---------------------------------------------------------------------------|
E|---------------------------------------------------------------------------|

Now for the rest that other dude before me is all correct... apart from some
rythm errors but hey this is a tab i trust your creativity enough to assume
you can fix that yourself... but since i haven't got anything better to do
right now i've fixed that too.


the chorus goes C# - G#m - B - F#

the dots tells you when to kill the notes.

e|---------------------------------------------------------------------------|
B|---------------------------------------------------------------------------|
G|--666-666-666-666-------------------444.444.444.444.-----------------------|
D|--666-666-666-666--666-666-666-666--444.444.444.444.444.444.444.444.-------|
A|--444-444-444-444--666-666-666-666--222.222.222.222.444.444.444.444.-------|
E|-------------------444-444-444-444------------------222.222.222.222.-------|


now just check tab #1 for the bridge and the outro... 



Have fun, this is a great song!
Tap to rate this tab
 
# A B C D E F G H I J K L M N O P Q R S T U V W X Y Z