Song name
# A B C D E F G H I J K L M N O P Q R S T U V W X Y Z

Less Than Jake - Negative Sides Of Optimistic Eyes tab

-------------------------------------------------------------------------------
	      Negative Sides of Optimistic Eyes - Less Than Jake
-------------------------------------------------------------------------------
Tabbed by: identityxcrysis
Email: masteroftheonering@hotmail.com

Tuning:EADGBE (Standard)

*=As many times as necessary
Intro-
e|---------------------------------------------------------------------------|
B|---------------------------------------------------------------------------|
G|---------------------------------------------------------------------------|
D|---0---2---4-------0---2---4----0---2---4----0---2---4---------------------|X2
A|-2---2---2-------0---0---0-------------------------------------------------|
E|------------------------------3---3---3----0---0---0-----------------------|

Verse-Before each chord change, gradually release on the palm mute and than play the full powerchord.
e|--------------------------|
B|--------------------------|
G|--------------------------|
D|-------7*-----------------|
A|-9*-5*-5----9*-5*---------|
E|-7--3-------7--3----------|
PM--------------------------|


Verse 2- Same as verse one, but starts on a different chord
e|-------------|
B|-------------|
G|-------------|
D|-7*----------|
A|-5--9*-5*----|
E|----7--3-----|
PM-------------|


Chorus- There are alot of rhythm variations to the chorus, but the chords are:           
                                  V Play that coming out of the chorus
e|--------------------------------|----------------------|
B|--------------------------------|----------------------|
G|---7-7--------------------------|--44-4----------------|
D|---7-7---5-77-55----22--22---55-|--44-4----2-2-2-------|
A|---5-5---5-77-55----22--22---55-|--22-2----2-2-2-------|
E|---------3-55-33----00--00---33-|----------0-0-0-------|

Bridge-Rhythm guitar
e|-----------------------------------------------------------------|
B|-----------------------------------------------------------------|
G|--5*----7*-------------------------------------------------------|
D|--5-----7----9-----9-----9-----9-------7-----7-----7-----7-------|
A|--3-----5----7-7-7-7-7-7-7-7-7-7-7-7---5-5-5-5-5-5-5-5-5-5-5-5---|
E|-----------------------------------------------------------------|
                 PM-   ---|  ---|  ---|    ---|  ---|  ---|  ---|

Bridge-Lead guitar-I can't hear the lead guitar very well, so I can't tab it...but you 
just play around with these three notes..and seriously...it sounds fine no matter what 
the lead guitar is so difficult to hear
e|----------|
B|--10-5-7--|
G|----------|
D|----------|
A|----------|
E|----------|

Outro-Can't really hear these chords, but I think it's
e|--------|
B|--------|
G|-5-4----|
D|-5-4-5--|
A|-3-2-5--|
E|-----3--|


===============================================================================
Tap to rate this tab
# A B C D E F G H I J K L M N O P Q R S T U V W X Y Z