Song name
# A B C D E F G H I J K L M N O P Q R S T U V W X Y Z

Less Than Jake - Soundtrack Of My Life tab

-------------------------------------------------------------------------------
			     Soundtrack Of My Life - Less Than Jake
-------------------------------------------------------------------------------
Tabbed by: identityxcrysis
Email: masteroftheonering@hotmail.com

Tuning: EADGBE (Standard)

Intro
            Those are 10s, not 1s and 0s
e|-9--9--9-9-9--10-1010-101010--|
B|-10-10-101010-10-1010-101010--|
G|------------------------------|
D|------------------------------|
A|------------------------------|
E|------------------------------|
 |
e|----------------------|
B|----------------------|
G|-----------7-77-7777--|
D|-7-7-777---7-77-7777--|
A|-7-7-777---5-55-5555--|
E|-5-5-555--------------|


Verse - Just figure out the rhythm, it's not hard
e|------------------------------|---------|-------|
B|------------------------------|---------|-------|
G|----9--7--x-7-x-6-x-4-x-6-7-7-|----9--7-|----7--|
D|-7--9--7--x-7-x-6-x-4-x-6-7-7-|-7--9--7-|--9-7--|
A|-7--7--5--x-5-x-4-x-2-x-4-5-5-|-7--7--5-|--9-5--|
E|-5----------------------------|-5-------|--7----|
                                             ^Why I feel this way

Chorus
e|------------|
B|------------|
G|-2--4-----7-|
D|-2--4--5--7-|
A|-0--2--5--5-|
E|-------3----|

Pre verse

e|-9--9--9-9-9--10-1010-101010--7--7--7-7-7--6--6-6--6-6-6--|
B|-10-10-101010-10-1010-101010--7--7--7-7-7--7--7-7--7-7-7--|
G|----------------------------------------------------------|
D|----------------------------------------------------------|
A|----------------------------------------------------------|
E|----------------------------------------------------------|
|
e|----------------------|
B|----------------------|
G|-----------7-77-7777--|
D|-7-7-777---7-77-7777--|
A|-7-7-777---5-55-5555--|
E|-5-5-555--------------|

Solo
e|-------------------------------------------------|
B|-------------------------------------------------|
G|---7--6--76---6-7-6-------7----------------------|
D|-9-7--------7-------7---9-7-------------6h7h6----|
A|-9-5--------------------9-5-5h7-4h5-2h4-------7--|
E|-7----------------------7------------------------|

Chorus with Key change
e|--------------------------------|
B|--------------------------------|
G|-4--6---9--9-x-8-x-6-x-8-9-9----|
D|-4--6-7-9--9-x-8-x-6-x-8-9-9-9--|
A|-2--4-7-7--7-x-6-x-4-x-6-7-7-9--|
E|------5----------------------7--|

| /  slide up
|   slide down
| h  hammer-on
| p  pull-off
| ~  vibrato
| +  harmonic
| x  Mute note
===============================================================================
Tap to rate this tab
 
# A B C D E F G H I J K L M N O P Q R S T U V W X Y Z