Song name
# A B C D E F G H I J K L M N O P Q R S T U V W X Y Z

Less Than Jake - Dont Fall Asleep On The Subway tab

-------------------------------------------------------------------------------
        	 Don't Fall Asleep On The Subway - Less Than Jake
-------------------------------------------------------------------------------
Tabbed by: identityxcrysis
Email: xrunawayboyx@hotmail.com

Tuning: EADGBE (Standard)

Intro
e|---------------------------------|
B|---------------------------------|
G|-4-4-x-2-------2--4-x-2---9-9----|
D|-4-4-x-2---2-x-2--4-x-2---9-9----|
A|-2-2-x-0---2-x-0--2-x-0---7-7----|
E|-----------0-x-------------------|

Verse
e|----------------------------------|
B|----------------------------------|
G|-4-4-x-2\------------------9-9----|
D|-4-4-x-2\------------------9-9----|
A|-2-2-x-0-------------------7-7----|
E|----------------------------------|

Pre-chorus
e|----------------------------------|
B|----------------------------------|
G|-6-6-6-6-6-6-6-6-----9-------999--|
D|-6-6-6-6-6-6-6-6-----9-------999--|
A|-4-4-4-4-4-4-4-4-----7--77777777--|
E|----------------------------------|
                        P.M.---|

Chorus
e|------------------------------------------------------------|
B|------------------------------------------------------------|
G|-4-4-xxxx-2-2----------2-2--4-4-xxxx-6-6-----------2-2------|
D|-4-4-xxxx-2-2-2-2-xxxx-2-2--4-4-xxxx-6-6--2-2-xxxx-2-2------|
A|-2-2-xxxx-0-0-2-2-xxxx-0-0--2-2-xxxx-4-4--2-2-xxxx-0-0------|
E|--------------0-0-xxxx--------------------0-0-xxxx----------|

Bridge
e|-----------------------------------------------|
B|-----------------------------------------------|
G|----------------------7----------------9-9-----|
D|-44444444-77777777----7----------------9-9-----|
A|-44444444-77777777-x3-5-555555555555---7-7-----|
E|-22222222-55555555-----------------------------|

I believe thats it...pretty easy


===============================================================================
Tap to rate this tab
# A B C D E F G H I J K L M N O P Q R S T U V W X Y Z