Song name
# A B C D E F G H I J K L M N O P Q R S T U V W X Y Z

Less Than Jake - Ps Shock The World tab

-------------------------------------------------------------------------------
          	     P.S. Shock The World - Less Than Jake
-------------------------------------------------------------------------------
Tabbed by: identityxcrysis
Email: xrunawayboyx@hotmail.com

Tuning:EADGBE (Standard)

Verse:
e|-x-3-x-3-3-3-3-3-x-3-x-3-3-3-3-3-x-6-x-6-6-6-6-6-x-6--x-6-6-6-6-6----------|
B|-x-3-x-3-3-3-3-3-x-4-x-4-4-4-4-4-x-6-x-6-6-6-6-6-x-6--x-6-6-6-6-6----------|
G|-x-4-x-4-4-4-4-4-x-5-x-5-5-5-5-5-x-7-x-7-7-7-7-7-x-7--x-7-7-7-7-7----------|
D|---------------------------------------------------------------------------|
A|---------------------------------------------------------------------------|
E|---------------------------------------------------------------------------|

Pre-chorus
e|-x-6-x-6-x-6-x-6-x-6-x-6-x-6-x-6-x-3-x-3-x-3-x-3-x-3-x-3-x-3-x-3-x---------|
B|-x-6-x-6-x-6-x-6-x-7-x-7-x-6-x-6-x-3-x-3-x-3-x-3-x-3-x-3-x-3-x-3-x---------|
G|-x-7-x-7-x-7-x-7-x-7-x-7-x-7-x-7-x-4-x-4-x-4-x-4-x-4-x-4-x-4-x-4-x---------|
D|---------------------------------------------------------------------------|
A|---------------------------------------------------------------------------|
E|---------------------------------------------------------------------------|

e|-x-3-x-3-x-3-x-3-x-3-x-3-x-3-x-3---|
B|-x-4-x-4-x-4-x-4-x-4-x-4-x-4-x-4---|
G|-x-5-x-5-x-5-x-5-x-5-x-5-x-5-x-5---|
D|-----------------------------------|
A|-----------------------------------|
E|-----------------------------------|

e|-----------------------------|
B|-----------------------------|
G|-----------------------------|
D|------666-88888888-----------|
A|-66666666-88888888-----------|
E|-44444444-66666666-----------|
   P.M--|

Chorus - 1st guitar
e|---------------------------------------------------------------------------|
B|---------------------------------------------------------------------------|
G|-8888888888888888---------------------55555555-----------------------------|
D|-8888888888888888--55555555555555555--55555555-333333333-6666666666666666--|
A|-6666666666666666--55555555555555555--33333333-333333333-6666666666666666--|
E|-------------------33333333333333333-----------111111111-4444444444444444--|

Chorus - 2nd guitar      In the very beginning of the second Verse
                          v Play this v
e|---------------------|----------------|
B|---------------------|----------------|
G|-12--10-12-8-7--8----|-7~------5~-----|
D|---------------------|----------------|
A|-10--8--10-6-5--6----|-5~------3~-----|
E|---------------------|----------------|

Bridge - 1st guitar
e|---------------------------------------|
B|---------------------------------------|
G|-------------55-55-----88-88-----------|
D|----55-55-55555-55--88888-88----88-88--|
A|-55555-55-33333-33--66666-66-88888-88--|
E|-33333-33--------------------66666-66--|
   P.M.     P.M.      P.M.     P.M.

Second guitar
e|---------------------------------------------------------------------------|
B|---------------------------------------------------------------------------|
G|-12-12-12-12-12-12-12----8-8-8-8-8-8-8-------------------------------------|
D|----------------------12---------------8-----------------------------------|
A|-10-10-10-10-10-10-10----6-6-6-6-6-6-6-------------------------------------|
E|----------------------10---------------6-----------------------------------|
At the end of the bridge, play this (11s and 12s not 1s and 2s)

e|---------------------------------------------------------------------------|
B|---------------------------------------------------------------------------|
G|-8--8--8--8-10-10-10-10-12--12--12--12-13--13--13--13---12-----------------|
D|---------------------------------------------------------------------------|
A|-6--6--6--6--8--8--8--8-10--10--10--10-11--11--11--11---10-----------------|
E|---------------------------------------------------------------------------|

Final Pre-chorus
e|------------------------------|
B|------------------------------|
G|-8----------------------------|
D|-8-------8----9---8---6---8---|
A|-6-------8----9---8---6---8---|
E|---------6----7---6---4---6---|

Really low clean guitar in the outro
e|--------6----------------|
B|------------6------------|
G|----8--------------------|
D|--8----------------------|
A|-------------------------|
E|-------------------------|

That's all there is too it.  Let me know if anything is wrong

| /  slide up
| \  slide down
| h  hammer-on
| p  pull-off
| ~  vibrato
| +  harmonic
| x  Mute note
===============================================================================
Tap to rate this tab
# A B C D E F G H I J K L M N O P Q R S T U V W X Y Z