Song name
# A B C D E F G H I J K L M N O P Q R S T U V W X Y Z

Less Than Jake - Landmines And Landslides tab

-------------------------------------------------------------------------------
		     Landmines And Landslides - Less Than Jake
-------------------------------------------------------------------------------
Tabbed by: identityxcrysis
Email: xrunawayboyx@hotmail.com

Tuning: EADGBE (standard)

Intro/Chorus
e|------------------------------------------------|
B|------------------------------------------------|
G|-55555555-77777777----------1010101010101010----|
D|-55555555-77777777-77777777-1010101010101010----|
A|-33333333-55555555-77777777-8-8-8-8-8-8-8-8-----|
E|-------------------55555555---------------------|

Second guitar in intro
e|----------------|
B|----------------|
G|--9-------------|
D|----10---9-10---|
A|----------------|
E|----------------|

Verse
e|----------------------------------------------------------------|
B|-----555--------------------------------------------------------|
G|-555-555-5-----777----------------------------------------------|
D|-555-----5-777-777-7777-3--------------------------555555-------|
A|-333-----3-777-----7777-3-33333333333333-5555555555555555-------|
E|-----------555-----5555-1-11111111111111-3333333333333333-------|
                          P.M-------------------------|
e|---------------------------------------------------------------------------|
B|---------------------------------------------------------------------------|
G|-5--------5---5--5---------------------------------------------------------|
D|-5-555555555555555---7---7--7--7--7--------------------------------55555---|
A|-3-333333333333333---7-77777777777777--3333333333333333-5555555555555555---|
E|---------------------5-55555555555555--1111111111111111-3333333333333333---|
     P.M---- --- --      -- -- -- -- --  -----------------------------|
Pre chorus
e|-------------------------------|
B|-------------------------------|
G|-------------------------------|
D|-7---5---3---7---5-------------|
A|-7---5---3---7---5-33333333----|
E|-5---3---1---5---3-11111111----|
                    P.M------|
Bridge
  As many times
  As needed       Afterwards
e|---------|-------------|
B|---------|-------------|
G|---------|--10---7-----|
D|-7--5--3-|--10---7-----|
A|-7--5--3-|--8----5-----|
E|-5--3--1-|-------------|

Solo
e|----------------------|
B|--6-5-8---5-6-5-------|
G|--5-5-5-5-------5-----|
D|----------------------|
A|----------------------|
E|----------------------|



===============================================================================
Tap to rate this tab
# A B C D E F G H I J K L M N O P Q R S T U V W X Y Z