Song name
# A B C D E F G H I J K L M N O P Q R S T U V W X Y Z

Less Than Jake - In-dependence Day tab

-------------------------------------------------------------------------------
		     In-Dependence Day - Less Than Jake
-------------------------------------------------------------------------------
Tabbed by: identityxcrysis
Email: xrunawayboyx@hotmail.com

Tuning: EADGBe (standard)

Melody
e|----------------------------|
B|----------------------------|
G|-13--9--6-9--9/11--9--6-----|
D|----------------------------|
A|-11--7--4-7--7/-9--7--4-----|
E|----------------------------|

Rhythm
e|--------------------------------------|
B|--------------------------------------|
G|--9-9-9999-99-9999--6-4-2-2-2222------|
D|--9-9-9999-99-9999--6-4-2-2-2222------|
A|--7-7-7777-77-7777--4-2-0-0-0000------|
E|--------------------------------------|

Verse -Rescue Me From Boring times                First time   Second time
e|----------------------------------------------|------------|-------------------------|
B|----------------------------------------------|------------|-------------------------|
G|--6-6-6666-66-6666---------4-44-4444-2-2-2222-|-x-7777777--|-4/7777777-4/7777777-2---|
D|--6-6-6666-66-6666-2-2-222-4-44-4444-2-2-2222-|-x-7777777--|-4/7777777-4/7777777-2---|
A|--4-4-4444-44-4444-2-2-222-2-22-2222-0-0-0000-|-x-5555555--|-2/5555555-2/5555555-0---|
E|-------------------0-0-000--------------------|------------|-------------------------|

Chorus -I'm borderline....
e|---------------------------------------------------------------------------|
B|---------------------------------------------------------------------------|
G|-------------------2-2-2222-6-4-2-------------------4/777777--4/7777777----|
D|-2-2-222-4-44-4444-2-2-2222-6-4-2-2-2-222-4-44-4444-4/777777--4/7777777----|
A|-2-2-222-4-44-4444-0-0-0000-4-2-0-2-2-222-4-44-4444-2/555555--2/5555555----|
E|-0-0-000-2-22-2222----------------0-0-000-2-22-2222------------------------|

Pre-chorus (after 2nd verse) - I try and try and try to remember...
e|--------------------------------------|
B|--------------------------------------|
G|---------7-7-7-77----------7-777777---|
D|-2-2-7-7-7-7-7-77-2-2-7-7--7-777777---|
A|-2-2-7-7-5-5-5-55-2-2-7-7--5-555555---|
E|-0-0-5-5----------0-0-5-5-------------|

Bridge-Lead
e|--------------------------------------------------------------|
B|--12-9-10-9-7-9--12-9-10-9-7-5--12-9-10-9-7-9--2-5-7-9-7-5-2--|
G|--------------------------------------------------------------|
D|--------------------------------------------------------------|
A|--------------------------------------------------------------|
E|--------------------------------------------------------------|

Bridge-Rhythm
e|------------------------------------|
B|------------------------------------|
G|-9-9--x-11-11-11--7-7--x------------|
D|-9-9--x-11-11-11--7-7--x--7-7-7-----|
A|-7-7--x--9--9--9--5-5--x--7-7-7-----|
E|--------------------------5-5-5-----|

Two different rhythm variations here, you can figure it out
e|-------|
B|-------|
G|-----7-|
D|-4-7-7-|
A|-4-7-5-|
E|-2-5---|

Thats it, all done! E-mail for questions/comments/corrections.

| /  slide up
| x  Mute note
===============================================================================
Tap to rate this tab
 
# A B C D E F G H I J K L M N O P Q R S T U V W X Y Z