Song name
# A B C D E F G H I J K L M N O P Q R S T U V W X Y Z

Less Than Jake - Thats Why They Call It A Union tab

Band:   Less Than Jake
Song:   That's Why They Call It A Union
Album:  Anthem

Intro:
-------------------------------------------------------------------|
-------------------------------------------------------------------|
-7~------9~---------7~---------------------------------------------|
-7~--7~--9~--5~-----7~--7~--55555555555555555555555555555555-------|
-5~--7~--7~--5~-----5~--7~--55555555555555555555555555555555-------|
-----5~------3~---------5~--33333333333333333333333333333333-------|

Chorus: "That's why they call it a union"
----------------------------|
----------------------------|
----------------7777--------|
-7777-4444-5555-7777--------|
-7777-4444-5555-5555--------|
-5555-2222-3333-------------|

Verse:
-5~-5---------------3---------3-------------5---------5-------------5-----
-5~---5-----------3---------3---3---------5---------5---5-----------------
-6~-----6-------4---------4-------4-----7---------7-------7-------6-------
-7~-------7---5---------5-------------7---------7---------------7---------
-7~-----------------------------------------------------------7-----------
-5~-----------------------------------------------------------------------

-------------5-----------5---------5-------------3-----------3------------
-----5---------5-------5---------5---5---------3---3-------3---3----------
---6-----------------6---------6-------6-----4-------4---4-------4--------
-7---------7-------7---------7-------------5-----------5------------5-----
---------7----------------------------------------------------------------
-------5------------------------------------------------------------------

-------5-----------5-------------3-------3-------3-----------|
-----5---5-------5---5---------3-------3-------3---3---------|
---6-------6---6-------6-----4-------4-------4-------4-------|
-7-----------7-----------7-5-------5-------5-----------5-----|
-------------------------------------------------------------|
-------------------------------------------------------------|

Pre-Chorus:
---------------------------|
---------------------------|
-7777------9999-1111-99----|
-7777-7777-9999-1111-99----|
-5555-7777-7777-9-9--77----|
------5555-----------------|

Chorus

Verse: (shortened)
-5~-5---------------3--------3-------------5--5555-5555/3333-3333-3333-3333-|
-5~---5-----------3--------3---3---------5----5555-5555/3333-3333-3333-3333-|
-6~-----6-------4--------4-------4-----7------6666-6666/4444-4444-4444-4444-|
-7~-------7---5--------5-------------7--------7777-7777/5555-5555-5555-5555-|
-7~-------------------------------------------7777-7777/5555-5555-5555-5555-|
-5~-------------------------------------------------------------------------|

Pre-Chorus

Chorus

Interlude:
----------------------------------------------------------------------------|
----------------------------------------------------------------------------|
----------99999999----------77777777------------9999999---------------------|
-99999999-99999999-77777777-77777777---99999999-9999999-777777777777777-----|
-99999999-77777777-77777777-55555555---99999999-7777777-7777777777777777----|
-77777777----------55555555------------77777777---------5555555555555555----|

Intro

Pre-Chorus

Chorus
Tap to rate this tab
 
# A B C D E F G H I J K L M N O P Q R S T U V W X Y Z