Song name
# A B C D E F G H I J K L M N O P Q R S T U V W X Y Z

Less Than Jake - Never Going Back To Jersey tab

Intro
     x4                        x4
   /    \                    /    \
E|-8----x----8-----x----8----8----x----6----x----8-----|
B|-8----x----10----x----8----8----x----6----x----10----|
G|-9----x----10----x----9----9----x----7----x----10----|
D|-10---x----10----x----10---10---x----8----x----10----|
A|-----------------------------------------------------|
E|-----------------------------------------------------|
     x4                        x4
   /    \                    /    \
E|-8----x----8-----x----8----8----x----8---mute--------|
B|-8----x----10----x----8----8----x----8---mute--------|
G|-9----x----10----x----9----9----x----9---mute--------|
D|-10---x----10----x----10---10---x----10--mute--------|
A|-----------------------------------------------------|
E|-----------------------------------------------------|

Verse (x4)
E|-8----6----(8)-----------|
B|-8----6----(10)----------|
G|-9----7----(10)----------|
D|-10---8----(10)----------|
A|-------------------------|
E|-------------------------|

Chorus (And i feel like im...)
E|----------------------|
B|----------------------|
G|-----------5----------|
D|-7----3----5----5-----|
A|-7----3----3----5-----|
E|-5----1---------3-----|

Chorus 2 ( Never going back again, never going back)
E|----------------------|
B|----------------------|
G|-5---------10----5----|
D|-5----7----10----5----|
A|-3----7----8-----3----|
E|------5---------------|

Bridge (no lyrics part with horns)
E|-----------------------|
B|-----------------------|
G|------------10---------|
D|-10----8----10---------|
A|-10----8----8----------|
E|-8-----6---------------|
Tap to rate this tab
# A B C D E F G H I J K L M N O P Q R S T U V W X Y Z