Song name
# A B C D E F G H I J K L M N O P Q R S T U V W X Y Z

Lesson Guitar - Major Scale Exercises tab

This is the basic Major scale exercise for guitar and bass. 
These are rather important for the aspiring string instrumentalist to learn and memorize. 
It is set up mainly for bass guitar, with the four strings, but for 6 string players, just 
remember that these are the four lowest strings of your instrument.

These are the major scales, which are bright and mellow when compared to the minor. 
They pull off a "happy" type sound when put to music.

F major
G|-----------------|-----------------|
D|-----------0-2-3-|-2-0-------------|
A|-----0-1-3-------|-----3-1-0-------|
E|-1-3-------------|-----------3-1---|

F#
G|-----------------|-----------------|
D|-----------1-3-4-|-3-1-------------|
A|-----1-2-4-------|-----4-2-1-------|
E|-2-4-------------|-----------4-2---|

G major
G|-----------------|-----------------|
D|-----------2-4-5-|-4-2-------------|
A|-----2-3-5-------|-----5-3-2-------|
E|-3-5-------------|-----------5-3---|


G# major
G|------------------|----------------|
D|------------3-5-6-|-5-3------------|
A|-----3-4-6--------|-----6-4-3------|
E|-4-6--------------|-----------6-4--|

A major
G|-----------------|-----------------|
D|-----------4-6-7-|-6-4-------------|
A|-----4-5-7-------|-----7-5-4-------|
E|-5-7-------------|-----------7-5---|

A# major
G|-----------------|-----------------|
D|-----------5-6-8-|-6-5-------------|
A|-----5-6-8-------|-----8-6-5-------|
E|-6-8-------------|-----------8-6---|

B major
G|-----------1-3-4-|-3-1-------------|
D|-----1-2-4-------|-----4-2-1-------|
A|-2-4-------------|-----------4-2---|
E|-----------------|-----------------|

C major
G|-----------2-4-5-|-4-2-------------|
D|-----2-3-5-------|-----5-3-2-------|
A|-3-5-------------|-----------5-3---|
E|-----------------|-----------------|

C# major
G|-----------3-5-6-|-5-3-------------|
D|-----3-4-6-------|-----6-4-3-------|
A|-4-6-------------|-----------6-4---|
E|-----------------|-----------------|

D major
G|-----------4-6-7-|-6-4-------------|
D|-----4-5-7-------|-----7-5-4-------|
A|-5-7-------------|-----------7-5---|
E|-----------------|-----------------|

D# major
G|-----------5-7-8-|-7-5-------------|
D|-----5-6-8-------|-----8-6-5-------|
A|-6-8-------------|-----------8-6---|
E|-----------------|-----------------|

E Major
G|-----------6-8-9-|-8-6-------------|
D|-----6-7-9-------|-----9-7-6-------|
A|-7-9-------------|-----------9-7---|
E|-----------------|-----------------|

Tap to rate this tab
 
# A B C D E F G H I J K L M N O P Q R S T U V W X Y Z