Guitaretab - guitar tabs
Song name
# A B C D E F G H I J K L M N O P Q R S T U V W X Y Z

Leteci Odred - Sanjao Sem Moju Ruzicu tab

I was listening to that song and it came up a great solo that i had to play on my
guitar. It goes something like that...


Leteci Odred - Sanjao sem moju ruzicu  (solo)

b- bend
v- vibrate
[ Tab from: http://www.guitaretab.com/l/leteci-odred/185391.html ]
1---------------------------------------------------------------------------------------------|
2---------------------------------------------------------------------------------------------|
3-------14-13v11-13-11-13v14------------14-13v11-13-11-13v14--14---------14-13v11-13-11-13v14-|
4---11------------------------11----11-------------------------------11-----------------------|
5---------------------------------------------------------------------------------------------|
6---------------------------------------------------------------------------------------------|

1------------------------------------------------------------------------|
2----------------b17-15-14-----------------------------------------------|
3---18-18--16-18-----------16------11--11--13-11--10--10--11-13--v11---9-|
4------------------------------------------------------------------------|
5------------------------------------------------------------------------|
6------------------------------------------------------------------------|


Link : http://www.diskografija.com/sastav/leteci-odred.htm