Letlive - Renegade 86 tab

The riff isn't difficult but it's really hard to hear in the recording, so yeah I tried my best.

Intro - 00:00
D# --------------------------------------------------------------------|
A# --------------------------------------------------------------------|
F# --14~------5--------------------------------------------------------|
C# ---x-----3-5-3-0-2-2-3-0-3-2-2--------------------------------------|
G# --12~----3-3-3-0-2-2-3-0-3-2-2--------------------------------------|
C# ---0~----3---3-0-2-2-3-0-3-2-2--------------------------------------|

                                               Play this to end the last riff
D# ---------------------------------------------------|----------------|
A# ---------------------------------------------------|----------------|
F# ------5---------5---------5---------5--------------|----------------|
C# --2-3-5-0-222-3-5-0-222-3-5-0-222-3-5-0-22---------|--3-3-0-5-5-5-3-|
G# --2-3-3-0-222-3-3-0-222-3-3-0-222-3-3-0-22---------|--3-3-0-5-5-5-3-|
C# --2h3---0-222h3---0-222h3---0-222h3---0-22-----x2--|--3-5-0-5-5-5-3-|

Verse 1 - 00:20 "You said it was the boy that bears your name..."
D# --------------------------------------------------------------------|
A# --------------------------------------------------------------------|
F# -----------------------5-------------------------5------------------|
C# ------------0-0-0~---0-5-0-5-0--------0-0-0~---0-5-0-5--------------|
G# ------------0-0-0~---0-3-0-5-0--------0-0-0~---0-3-0-5--------------|
C# -------5/7--0-0-0~---0---0-5-0---5/7--0-0-0~---0---0-5--------------|
                        .   .                     .   .       
Pre-Chorus - 00:35
D# --------------------------------------------------------------------|
A# --------------------------------------------------------------------|
F# --------------------------------------------------------------------|
C# --5555555555555555000000000000000-----------------------------------|
G# --5555555555555555000000000000000-----------------------------------|
C# --5555555555555555000000000000000-----------------------------------|

Chorus 1 - 00:42   "Here in the sun..."            Play this at end
D# --------------------------------------------|-----------------------|
A# --------------------------------------------|-----------------------|
F# ------5----5-555/777-333333333333/5555------|-----------------------|
C# --0-3-5-5^-5-555/777-333333333333/5555------|--0-0------------------|
G# --0-3-3-5^-3-333/555-111111111111/3333------|--0-0------------------|
C# --0-3---5^----------------------------------|--0-0------------------| x2

Intro again - 00:58
D# --------------------------------------------------------------------|
A# --------------------------------------------------------------------|
F# ------5---------5---------5---------5-------------------------------|
C# --2-3-5-0-222-3-5-0-222-3-5-0-222-3-5-0-22--------------------------|
G# --2-3-3-0-222-3-3-0-222-3-3-0-222-3-3-0-22--------------------------|
C# --2h3---0-222h3---0-222h3---0-222h3---0-22-----x2-------------------|

Verse 2 - 01:11    "If it wasn't for the boy bears your name..."
D# --------------------------------------------------------------------|
A# --------------------------------------------------------------------|
F# -----------------------5-------------------------5------------------|
C# ------------0-0-0~---0-5-0-5-0--------0-0-0~---0-5-0-5-0------------|
G# ------------0-0-0~---0-3-0-5-0--------0-0-0~---0-3-0-5-0------------|
C# -------5/7--0-0-0~---0---0-5-0---5/7--0-0-0~---0---0-5-0------------|
                        .   .                     .   . 
"They said you're nobody 'til someone kills you..."
D# --------------------------------------------------------------------|
A# --------------------------------------------------------------------|
F# -----------------------5-------------------------5------------------|
C# ------------0-0-0~---0-5-0-5-0--------0-0-0~---0-5-0-5--------------|
G# ------------0-0-0~---0-3-0-5-0--------0-0-0~---0-3-0-5--------------|
C# ------------0-0-0~---0---0-5-0--------0-0-0~---0---0-5--------------|
                        .   .                     .   .

Pre Chorus 2 - 01:38
D# --------------------------------------------------------------------|
A# --------------------------------------------------------------------|
F# ----------------------------------------5------5--------------------|
C# --5555555555555555000000000000000-------5------5--------------------|
G# --5555555555555555000000000000000-------3------3--------------------|
C# --5555555555555555000000000000000---0h3---0-5^---333/55-------------|

Chorus 2 - 01:49
D# --------------------------------------------------------------------|
A# --------------------------------------------------------------------|
F# ------5----5-555/777-333333333333/5555------------------------------|
C# --0-3-5-5^-5-555/777-333333333333/5555------------------------------|
G# --0-3-3-5^-3-333/555-111111111111/3333------------------------------|
C# --0-3---5^----------------------------------------------------------| x4

Bridge - 02:17
D# --------------------------------------------------------------------|
A# --------------------------------------------------------------------|
F# --7777777777777777777777777777777777777777777777777777777777777777--|
C# --xxxxxxxx66666666xxxxxxxx66666666xxxxxxxx66666666xxxxxxxx66666666--|
G# --5555555555555555555555555555555555555555555555555555555555555555--|
C# --------------------------------------------------------------------|

D# --------------------------------------------------------------------|
A# --------------------------------------------------------------------|
F# --7-7-7-7-7-7-77-7777-----------------------------------------------|
C# --6-6-6-6-6-6-66-6666-----------------------------------------------|
G# --5-5-5-5-5-5-55-5555-----------------------------------------------|
C# --------------------------------------------------------------------|

02:35    "Yeah I gotta copyright..."
D# --------------------------------------------------------------------|
A# --------------------------------------------------------------------|
F# --7-----------------7-----------------------------------------------|
C# --6---------3/5/3p0-6---------000033--------------------------------|
G# --5-------3---------5-------3-000033--------------------------------|
C# ----0-3h5-------------0-3h5---000033--------------------------------|

D# --------------------------------------------------------------------|
A# --------------------------------------------------------------------|
F# --7-----------------7---------7-7-7-7-7-7-7-7-----------------------|
C# --6---------3/5/3p0-6---------6-6-6-6-6-6-6-6-----------------------|
G# --5-------3---------5-------3-5-5-5-5-5-5-5-5-----------------------|
C# ----0-3h5-------------0-3h5-----------------------------------------|

D# --------------------------------------------------------------------|
A# --------------------------------------------------------------------|
F# --7-----------------7-----------------------------------------------|
C# --6---------3/5/3p0-6---------33335533------------------------------|
G# --5-------3---------5-------3-33335533------------------------------|
C# ----0-3h5-------------0-3h5---33335533------------------------------|


D# --------------------------------------------------------------------|
A# --------------------------------------------------------------------|
F# --7-----------------7---------7-7-7-7-7-7-7-7-7777777777------------|
C# --6---------3/5/3p0-6---------6-6-6-6-6-6-6-6-6666666666------------|
G# --5-------3---------5-------3-5-5-5-5-5-5-5-5-5555555555------------|
C# ----0-3h5-------------0-3h5-----------------------------------------|

Chorus 3 - 03:04
D# --------------------------------------------------------------------|
A# --------------------------------------------------------------------|
F# ------5----5-555/777-333333333333/5555------------------------------|
C# --0-3-5-5^-5-555/777-333333333333/5555------------------------------|
G# --0-3-3-5^-3-333/555-111111111111/3333------------------------------|
C# --0-3---5^----------------------------------------------------------| x4

Outro - 03:32
D# --------------------------------------------------------------------|
A# --------------------------------------------------------------------|
F# --------------------------------------------------------------------|
C# --0--00--000--------------------------------------------------------|
G# --0--00--000--------------------------------------------------------|
C# --0--00--000--------------------------------------------------------|

Key:

~ = let ring
. = palm mute
^ = bend
h = hammer on
p = pull off
/ = slide
Tap to rate this tab
 
# A B C D E F G H I J K L M N O P Q R S T U V W X Y Z