Letlive - Homeless Jazz tab

http://www.myspace.com/letlive
http://theletlivecrew.wordpress.com/


Tuned half a step down, then drop the low string. Like Drop D, except all tuned down half a step.
There are two guitars, but they are very similar throughout (except in the last
chorus), so I have not tabbed both.

Intro - 00:00
D# --------------------------------------------------------------------|
A# --------------------------------------------------------------------|
F# --------------------------------------------------------------------|
C# ----5--222-5------5--222020-----5--222-5-----5--222020-22-22-22-22--|
G# -------------------------------------------------------22-22-22-22--|
C# --2--------------2-------------2-----------2-----------22-22-22-22--|
          ..            ..            ..           ..  

Verse - 00:08 "You are the product of a prodigal son..."
D# --------------------------------------------------------------------|
A# --------------------------------------------------------------------|
F# --------------------------------------------------------------------|
C# ----5--222-5------5--222020-----5--222-5-----5--222020---------------|
G# --------------------------------------------------------------------|
C# --2--------------2-------------2-----------2------------------------|  x2
          ..            ..            ..           ..  

00:18
D# ------33--------------33--------------------------------------------|
A# ------33--------------33--------------------------------------------|
F# --------------------------------------------------------------------|
C# --22222222222220202222222222222020-22-22-22-22-22-22-22-22-22-22-22-|
G# --22222222222220202222222222222020-22-22-22-22-22-22-22-22-22-22-22-|
C# --22222222222220202222222222222020-22-22-22-22-22-22-22-22-22-22-22-|

00:35
D# --------------------------------------------------------------------|
A# --------------------------------------------------------------------|
F# ----------------------------------------------14~-------------------|
C# --2-5-0-2---2-5-0-2---2-5-0-2---2-5-0-2---0~------------------------|
G# --2-5-0-2---2-5-0-2---2-5-0-2---2-5-0-2---0~--12~-------------------|
C# --2-5-0-2---2-5-0-2---2-5-0-2---2-5-0-2---0~------------------------|

D# --------------------------------------------------------------------|
A# --------------------------------------------------------------------|
F# --------------------------------------------------------------------|
C# --2-5-0-2---2-5-0-2---2-5-0-2---------------------------------------|
G# --2-5-0-2---2-5-0-2---2-5-0-2---------------------------------------|
C# --2-5-0-2---2-5-0-2---2-5-0-2---------------------------------------|

Chorus - 00:46 "In a world so full of it..."

D# --------------------------------------------------------------------|
A# --------------------------------------------------------------------|
F# --22222-------------------22222-------------------------------------|
C# --22222-22222-33333-33333-22222-22222-33333~-33333~-----------------|
G# --00000-22222-33333-33333-00000-22222-33333~-33333~-----------------|
C# --------22222-33333-33333-------22222-33333~-33333~-----------------|

D# --------------------------------------------------------------------|
A# --------------------------------------------------------------------|
F# --22222-------------------22222-------------------------------------|
C# --22222-22222-33333-33333-22222-22222-3~-----------5----------------|
G# --00000-22222-33333-33333-00000-22222-3~----------------------------|
C# --------22222-33333-33333-------22222-3~---------2---222020---------|

Verse 2 - 1:08 "I am the father of a prodigal son..."
D# --------------------------------------------------------------------|
A# ---------555-------------------------555----------------------------|
F# --------------------------------------------------------------------|
C# ----5--22222------5-------------5--22222------5---------------------|
G# --------------------------------------------------------------------|
C# --2------------2--222020-----2--------------2---222020--------------| x4
          ..                          ..

Chorus 2 - 01:32
D# --------------------------------------------------------------------|
A# --------------------------------------------------------------------|
F# --22222-------------------22222-------------------------------------|
C# --22222-22222-33333-33333-22222-22222-33333~-33333~-----------------|
G# --00000-22222-33333-33333-00000-22222-33333~-33333~-----------------|
C# --------22222-33333-33333-------22222-33333~-33333~-----------------|

D# --------------------------------------------------------------------|
A# --------------------------------------------------------------------|
F# --22222-------------------22222-------------------------------------|
C# --22222-22222-33333-33333-22222-22222-3~----------2-5-222020--------|
G# --00000-22222-33333-33333-00000-22222-3~----------2-5-222020--------|
C# --------22222-33333-33333-------22222-3~----------2-5-222020--------|
                                                         ..

Bridge - 01:52 "Now kill the army, and I'll send them all to Hell..."
D# ----------------3-------------------------3-------------------------|
A# ----------------3-------------------------3-------------------------|
F# --------------------------------------------------------------------|
C# --2-5-2220----2---222020----2-5-2220----2---222020------------------|
G# --2-5-2220----2---222020----2-5-2220----2---222020------------------|
C# --2-5-2220----2---222020----2-5-2220----2---222020------------------|
         ..          ..            ..          ..

D# ----------------3-------------------------3-------------------------|
A# ----------------3-------------------------3-------------------------|
F# --------------------------------------------------------------------|
C# --2-5-2220----2---222020----2-5-2220----2---222020------------------|
G# --2-5-2220----2---222020----2-5-2220----2---222020------------------|
C# --2-5-2220----2---222020----2-5-2220----2---222020------------------|
         ..          ..            ..          ..

"Let me kiss my momma..."
D# --------------------------------------------------------------------|
A# --------------------------------------------------------------------|
F# --------------------------------------------------------------------|
C# --2-5-2220----22020-2-5-222025202520--2-5-2220--222202---2~---------|
G# --2-5-2220----22020-2-5-222025202520--2-5-2220--222202---2~---------|
C# --2-5-2220----22020-2-5-222025202520--2-5-2220--222202---2~---------|
         ..                ..                ..

02:28
D# --------------------------------------------------------------------|
A# --------------------------------------------------------------------|
F# --------------------------------------------------------------------|
C# --2222222222222222222222222222222222222222222222222222222222222222--|
G# --2222222222222222222222222222222222222222222222222222222222222222--|
C# --2222222222222222222222222222222222222222222222222222222222222222--|

"If we both, both, both, both of us can learn to..."
D# --------------------------------------------------------------------|
A# --------------------------------------------------------------------|
F# --------------------------------------------------------------------|
C# --2-5-0-2---2-5-0-2---2-5-0-2---2-5-0-2---2-5-0-2---000000----------|
G# --2-5-0-2---2-5-0-2---2-5-0-2---2-5-0-2---2-5-0-2---000000----------|
C# --2-5-0-2---2-5-0-2---2-5-0-2---2-5-0-2---2-5-0-2---000000----------|
                                                       ......

Interlude - 02:48
D# --00000-00000------------00000-00000--------------------------------|
A# --11111-00000------------11111-00000--------------------------------|
F# --22222-11111-2222222222-22222-11111-2222222222---------------------|
C# --22222-22222-3333333333-22222-22222-3333333333---------------------|
G# --00000-22222-3333333333-00000-22222-3333333333---------------------|
C# --------22222-3333333333-------22222-3333333333---------------------|

D# --00000-00000------------0~-----------------------------------------|
A# --11111-00000------------1~-----------------------------------------|
F# --22222-11111-2222222222-2~-----------------------------------------|
C# --22222-22222-3333333333-2~--333333333333---------------------------|
G# --00000-22222-3333333333-0~--333333333333---------------------------|
C# --------22222-3333333333-----333333333333---------------------------|

Chorus 3 - 03:05
D# --------------------------------------------------------------------|
A# --------------------------------------------------------------------|
F# --22222-------------------22222-------------------------------------|
C# --22222-22222-33333-33333-22222-22222-33333~-33333~-----------------|
G# --00000-22222-33333-33333-00000-22222-33333~-33333~-----------------|
C# --------22222-33333-33333-------22222-33333~-33333~-----------------|


D# --------------------------------------------------------------------|
A# --------------------------------------------------------------------|
F# --22222-------------------22222-------------------------------------|
C# --22222-22222-33333-33333-22222-22222-3~----------------------------|
G# --00000-22222-33333-33333-00000-22222-3~----------------------------|
C# --------22222-33333-33333-------22222-3~----------------------------| x2

Outro - 03:38
D# --------------------------------------------------------------------|
A# --------------------------------------------------------------------|
F# --------------------------------------------------------------------|
C# --3333333333332-----------------------------------------------------|
G# --3333333333332-----------------------------------------------------|
C# --3333333333332-----------------------------------------------------|

Key:
~ = let ring
. = palm mute
Tap to rate this tab
 
# A B C D E F G H I J K L M N O P Q R S T U V W X Y Z