Lets Get It - Ciroc Roll tab

This is as best as I can get it. Just learned it by ear so here goes nothing. It's in 
tuning btw:

INTRO
-Lead Guitar- X4

|------7------------7---------------------------------------|
|---------9------------9----------------------------------9-|
|--6-6----------6-6---------9-p6h9p6h9p6--11-p9h11p9h9-11---|
|-----------------------------------------------------------|
|-----------------------------------------------------------|
|-----------------------------------------------------------|

-Rhythm Guitar- (Comes in after 2nd time)   X2

|----------------------------------------|
|----------------------------------------|
|--6----6-6-6-6-6-6--6----6-6-6-6-6-6----|
|--6----6-6-6-6-6-6--6----6-6-6-6-6-6----|
|--4----4-4-4-4-4-4--4----4-4-4-4-4-4----|
|----------------------------------------|

|----------------------------------------|
|----------------------------------------|
|----------------------------------------|
|--5----5-5-5-5-5-5--7----7-7-7-7-7-7----|
|--5----5-5-5-5-5-5--7----7-7-7-7-7-7----|
|--3----3-3-3-3-3-3--5----5-5-5-5-5-5----|

VERSE 1 (X2)
-Both Guitars-

|---------------------------------------------------------|
|---------------------------------------------------------|
|---------------------------------------------------------|
|---------------------------------------------------------|
|--4----4-4----4--4--4-4----x--------------------------x--|
|---------------------------x-0----0-0----2--2--2-2----x--|


|---------------------|
|---------------------|
|---------------------|
|--7--------6---------|
|--7--------6---------|
|--5--------4---------|

CHORUS
-Both Guitars-

|----------------------------------------|
|----------------------------------------|
|--6----6-6-6-6-6-6--6----6-6-6-6-6-6----|
|--6----6-6-6-6-6-6--6----6-6-6-6-6-6----|
|--4----4-4-4-4-4-4--4----4-4-4-4-4-4----|
|----------------------------------------|

|----------------------------------------|
|----------------------------------------|
|----------------------------------------|
|--5----5-5-5-5-5-5--7----7-7-7-7-7-7----|
|--5----5-5-5-5-5-5--7----7-7-7-7-7-7----|
|--3----3-3-3-3-3-3--5----5-5-5-5-5-5----|

|----------------------------------------|
|----------------------------------------|
|--6----6-6-6-6-6-6--6----6-6-6-6-6-6----|
|--6----6-6-6-6-6-6--6----6-6-6-6-6-6----|
|--4----4-4-4-4-4-4--4----4-4-4-4-4-4----|
|----------------------------------------|

|----------------------------------------|
|----------------------------------------|
|----------------------------------------|
|--2----2-2-2-2-2-2--4----4-4-4-4-4-4----|
|--2----2-2-2-2-2-2--4----4-4-4-4-4-4----|
|--0----0-0-0-0-0-0--2----2-2-2-2-2-2----|

VERSE 2 (X4)
-Guitar 1-

|---------------------------------------------------------|
|---------------------------------------------------------|
|--6----6-6----6--6--6-6----------------------------------|
|---------------------------------------------------------|
|--4----4-4----4--4--4-4----x-2----2-2----4--4--4-4----x--|
|---------------------------x-0----0-0----2--2--2-2----x--|

-Guitar 2- (on 2nd and 4th times only)

|---------------------------------------------------------|
|---------------------------------------------------------|
|--9----9-9----9--9--9-9----------------------------------|
|---------------------------------------------------------|
|--7----7-7----7--7--7-7----x-2----2-2----4--4--4-4----x--|
|---------------------------x-0----0-0----2--2--2-2----x--|

BRIDGE
-Both Guitars-

|---------------------------|
|---------------------------|
|-----------4-4-4-4-5-5-5-5-|
|--7--------x-x-x-x-x-x-x-x-|
|--7--------2-2-2-2-3-3-3-3-|
|--5------------------------|

CHORUS 2
-Rhythm Guitar-

|----------------------------------------|
|----------------------------------------|
|--6----6-6-6-6-6-6--6----6-6-6-6-6-6----|
|--6----6-6-6-6-6-6--6----6-6-6-6-6-6----|
|--4----4-4-4-4-4-4--4----4-4-4-4-4-4----|
|----------------------------------------|

|----------------------------------------|
|----------------------------------------|
|----------------------------------------|
|--5----5-5-5-5-5-5--7----7-7-7-7-7-7----|
|--5----5-5-5-5-5-5--7----7-7-7-7-7-7----|
|--3----3-3-3-3-3-3--5----5-5-5-5-5-5----|


|----------------------------------------|
|----------------------------------------|
|--6----6-6-6-6-6-6----------------------|
|--6----6-6-6-6-6-6--2----2-2-2-2-2-2----|
|--4----4-4-4-4-4-4--2----2-2-2-2-2-2----|
|--------------------0----0-0-0-0-0-0----|

|----------------------------------------|
|----------------------------------------|
|--4----4-4-4-4-4-4----------------------|
|--4----4-4-4-4-4-4--7----7-7-7-7-7-7----|
|--2----2-2-2-2-2-2--7----7-7-7-7-7-7----|
|--------------------5----5-5-5-5-5-5----|

-Lead Guitar-

|------7------------7---------------------------------------|
|---------9------------9----------------------------------9-|
|--6-6----------6-6---------9-p6h9p6h9p6--11-p9h11p9h9-11---|
|-----------------------------------------------------------|
|-----------------------------------------------------------|
|-----------------------------------------------------------|

BREAKDOWN

-Guitar 1-

|---------------------------------------------------------|
|---------------------------------------------------------|
|---------------------------------------------------------|
|---------------------------------------------------------|
|--4---4--7---7--4---4--7---7---------9---9---------------|
|------------------------------5---5----------7--7-7-8-8--|

-Both Guitars-

|------------------------------------------------------|
|------------------------------------------------------|
|--6-6--9-9--6-6-6--9-9-9---------11-11-11--4-4-4-5-5--|
|--x-x--x-x--x-x-x--x-x-x--7-7-7--x--x--x---x-x-x-x-x--|
|--4-4--7-7--4-4-4--7-7-7--x-x-x--9--9--9---2-2-2-3-3--|
|--------------------------5-5-5-----------------------|

BRIDGE  X4
(I'm not 100% certain about this part. I'm pretty sure these are the right notes but the 
kinda weird. There's also a lead going on here but I can't quite figure it out so... :/ )

-Rhythm Guitar-

|--------------------|
|--------------------|
|--------------------|
|--7--------9--------|
|--7--------9--------|
|--5--------7--------|

|----------------------------------------------------------------------|
|----------------------------------------------------------------------|
|--6----6--------------------------6---6----6--------------------------|
|--6----x-x-x-x-x-x-x-x-x-x-x-x-x--x-x-4----x-x-x-x-x-x-x-x-x-x-x-x-x--|
|--4----4-x-x-x-x-x-x-x-x-x-x-x-x--4-x-4----4-x-x-x-x-x-x-x-x-x-x-x-x--|
|---------x-x-x-x-x-x-x-x-x-x-x-x----x--------x-x-x-x-x-x-x-x-x-x-x-x--|


CHORUS 2

BREAKDOWN


That's it. Probably not 100% correct but it gets the job done I believe! Hope you like it
Tap to rate this tab
 
# A B C D E F G H I J K L M N O P Q R S T U V W X Y Z