Song name
# A B C D E F G H I J K L M N O P Q R S T U V W X Y Z

Lets Wrestle - Tanks chords

Highlighted       Show chord diagrams
Lets Wrestle - Tanks
from the album 'In The Court Of Wrestling Lets'

Tabbed by: OllietheRocker

Tuning: Standard!

Intro (palm mute power chords then switch to open barre chords on the second time through,
 also on the second time through play the first chord pattern twice rather than changing to Em)

   C                                         Bm    F 
e|---------------------------------------------------------------------------|
B|---------------------------------------------------------------------------|
G|-5--5--5--5--5--5--5--5--5--5--5--5--5--5--4--4----------------------------|
D|-5--5--5--5--5--5--5--5--5--5--5--5--5--5--4--4--3--3--3--3--3--3--3--3--3-|
A|-3--3--3--3--3--3--3--3--3--3--3--3--3--3--2--2--3--3--3--3--3--3--3--3--3-|
E|-X--X--X--X--X--X--X--X--X--X--X--X--X--X--X--X--1--1--1--1--1--1--1--1--1-|

            Dm    C                                         Em    F
e|---------------------------------------------------------------------------|
B|---------------------------------------------------------------------------|
G|----------7--7--5--5--5--5--5--5--5--5--5--5--5--5--5--5--9--9-------------|
D|-3--3--3--7--7--5--5--5--5--5--5--5--5--5--5--5--5--5--5--9--9--3--3--3--3-|
A|-3--3--3--5--5--3--3--3--3--3--3--3--3--3--3--3--3--3--3--7--7--3--3--3--3-|
E|-1--1--1--X--X--X--X--X--X--X--X--X--X--X--X--X--X--X--X--X--X--1--1--1--1-|

e|---------------------------------------------------------------------------|
B|---------------------------------------------------------------------------|
G|---------------------------------------------------------------------------|
D|-3--3--3--3--3--3--3--3--3--3----------------------------------------------|
A|-3--3--3--3--3--3--3--3--3--3----------------------------------------------|
E|-1--1--1--1--1--1--1--1--1--1----------------------------------------------|


or think of it as, 2 downward strums per beat, 7 beats on C, 1 beat on Bm, 7 on F 
and then 1 beat on Dm etc.

Verse 1
C                   Am           Dm 
My belief is that we fight and we bleed,
          Am           Dm              
And never find what we need to carry on
C                       Am           Dm
And my belief is that we lie in the dirt,
              Am             Dm               C
And can't get rid of all this hurt and carry on

Chorus
Em                G
Not a squadron of tanks,
G                              C
Or soldiers of different ranks could save us!
Em               G
Not a fleet of policemen or,
G                                                        C
faith or religion could give me the guts to talk to you again

Verse 2
C                 Am             Dm
why don't you stop wasting your time,
                  Am                Dm
because I've been wasting my time for far too long.
C                   Am               Dm
and when you realize what you have done,
           Am                   Dm                C      
I hope you come and find me and say that you were wrong

Chorus
Em                G
Not a squadron of tanks,
G                              C
Or soldiers of different ranks could save us!
Em               G
Not a fleet of policemen or,
G                                                        C
faith or religion could give me the guts to talk to you again

Bridge
C          Bm   F        Dm              
oh, oh oh, oh ohhhhh, oooh
C          G    F        Dm
oooh hoh-ohoh      ooooh
C          Bm   F        Dm
oh, oh oh, oh ohhhhh, oooh
C          G    F        Dm 
hoh-hoho, oh, oh oooh

C              C

Chorus
Em                G
Not a squadron of tanks,
G                              C
Or soldiers of different ranks could save us!
Em               G
Not a fleet of policemen or,
G                                                        C
faith or religion could give me the guts to talk to you again

Outro
C          Bm   F        Dm   
oh, oh oh, oh ohhhhh, oooh hoh-ohoh
C          G    F        Dm
oh, oh oh, oh ohhhhh, oooh hoh-hoho
C

04/03/14
Tap to rate this tab
 
# A B C D E F G H I J K L M N O P Q R S T U V W X Y Z