Song name
# A B C D E F G H I J K L M N O P Q R S T U V W X Y Z

Letter 7 - Nail In The Cross tab

-------------------------------------------------------------------------------
			  Nail In The Cross  -  Letter 7
-------------------------------------------------------------------------------
Tabbed by: I Rock 4 God
Email:HobbobTok98@gmail.com
Tuning: Drop D (D,A,D,G,B,e)
Rhythm Guitar (with a few leads)

RIFF x4
e|---------------------------------------------------------------------------|
B|-----*-*-*-*-*-------*-*-*-*-*------*-*-*-*-*-----*-*-*-----*--------------|
G|---------------------------------------------------------------------------|
D|--9~-----------------------------7~------------2~---------7----------------|
A|--7~-2-2-2-2-2-------2-2-2-2-2---5~-2-2-2-2-2--0~-2-2-2---5----------------|
D|-----2-2-2-2-2--4+---2-2-2-2-2------2-2-2-2-2-----2-2-2-----0--------------|
                 A.H.         

INTRO - lead guitar (start at third time through Rhythm) 
e|-12~-10-10910~-h10p7h10p7h10p7h10p7h10p7h-12b~--------12b-12121212---------|
B|----------------------------------------------10-8b10--------------9-9-7-9~|
G|---------------------------------------------------------------------------|
D|---------------------------------------------------------------------------|
A|---------------------------------------------------------------------------|
D|---------------------------------------------------------------------------|

VERSE (Clean)
e|--3~-(3)-------------------------------------------------------------------|
B|--0~-(0)-------------------------------------------------------------------|
G|--0~-(0)-------------------------------------------------------------------|
D|--2~-(2)-------------------------------------------------------------------|
A|--2~-(2)-------------------------------------------------------------------|
D|--2~-(2)-------------------------------------------------------------------|

VERSE (Distorted) x2
e|---------------------------------------------------------------------------|
B|-----*-*-*-*-*-------*-*-*-*-*------*-*-*-*-*-----*-*-*-----*--------------|
G|---------------------------------------------------------------------------|
D|--9~-----------------------------7~------------2~---------7----------------|
A|--7~-2-2-2-2-2-------2-2-2-2-2---5~-2-2-2-2-2--0~-2-2-2---5----------------|
D|-----2-2-2-2-2--4+---2-2-2-2-2------2-2-2-2-2-----2-2-2-----0--------------|
                 A.H.         
PRE-CHORUS P1                         P2                 
e|------------------------------|--|-----------------------------------------|
B|-----------*-*-*-*-----*-*----|--|-----------------------------------------|
G|------------------------------|--|-----------------------------------------|
D|--7~-2~------------7-9-----9--|x2|-5~7~4~5~-----------------4--4-4--4-4-4-4|
A|--5~-0~-2--2-2-2-2-5-7-2-2-7--|--|-3~5~2~3~-2-2-2-2-2-2-2-2-2--2-2--2-2-2-2|
D|--------2--2-2-2-2-----2-2----|--|----------2-2-2-2-2-2-2-2----------------|

CHORUS x2
e|---------------------------------------------------------------------------|
B|---------------------------------------------------------------------------|
G|-----5~-2~-4~--------------------------------------------------------------|
D|--2~-5~-2~-4~--5--5-5-5-5--7--7-7-7-7--9--9-9-9-9-7-9-11-5-----------------|
A|--2~-3~-0~-2~--3--3-3-3-3--5--5-5-5-5--7--7-7-7-7-5-7-9--7-----------------|
D|--2~-----------------------------------------------------------------------|

RIFF

Lead underneath RIFF
e|----------------------------------------15b~12-10-12~-14-15-17----------12b|
B|--10b-10b-10b-10b-10b-10b-10b---10-10-------------------------1713151317---|
G|-9---9---9---9---9---9---9---9--9--9--9------------------------------------|
D|--------------------------------------9------------------------------------|
A|---------------------------------------------------------------------------|
D|---------------------------------------------------------------------------|

VERSE (Distorted Only)
PRE-CHORUS
CHORUS (Same, but end on:)
e|---------------------------------------------------------------------------|
B|---------------------------------------------------------------------------|
G|---------------------------------------------------------------------------|
D|--14W\~--------------------------------------------------------------------|
A|--14W\~--------------------------------------------------------------------|
D|--14W\~--------------------------------------------------------------------|

SOLO (Rhythm only) 
e|---------------------------------------------------------------------------|
B|----*-*-*-*-*-*-*---*-*-*-*--*-*-*-*-*--*-*-*-*-*-*-*-*-*-*-*-*-*-*-*-*-*-*|
G|--2---------------2-----------------------------------------2-------2------|
D|--2-------2-------2---------2-------------------------------2-------2------|
A|--0-0-0-0-0-0-0-0-0-0-0-0-0-0-0-0-0-0-0-2-2-2-2-2-2-2-2-2-2-0-0-0-0-0-0-0-0|
D|----------------------------------------2-2-2-2-2-2-2-2-2-2----------------|

e|------------------------------|--|-----------------------------------------|
B|-----------*-*-*-*-----*-*----|--|-----------------------------------------|
G|------------------------------|--|-----------------------------------------|
D|--7~-2~------------7-9-----9--|x2|-5~7~4~5~-----------------4--4-4--4-4-4-4|
A|--5~-0~-2--2-2-2-2-5-7-2-2-7--|--|-3~5~2~3~-2-2-2-2-2-2-2-2-2--2-2--2-2-2-2|
D|--------2--2-2-2-2-----2-2----|--|----------2-2-2-2-2-2-2-2----------------|

CHORUS x2

************************************
| ()  Ghost Note
| *   Palm Mute
| h   hammer-on
| p   pull-off
| ~   hold note
| +   harmonic
| b   Bend
| W\~ Whammy Down
************************************

Enjoy!  Keep on Rockin' in Christ!

Here is the bands website.
www.myspace.com/letter7rocks
Tap to rate this tab
# A B C D E F G H I J K L M N O P Q R S T U V W X Y Z