Song name
# A B C D E F G H I J K L M N O P Q R S T U V W X Y Z

Letter 7 - Runnin tab

-------------------------------------------------------------------------------
			     Runnin’ - Letter 7
-------------------------------------------------------------------------------
Tabbed by: I Rock 4 God
Email:HobbobTok98@gmail.com
Tuning: Drop D (D,A,D,G,B,e) 
Rhythm Guitar part

INTRO
e|---------------------------------------------------------------------------|
B|--------------------------------------------*-*----*-*----*-*--------------|
G|---------------------------------------------------------------------------|
D|--7-7--7-7--6-6--6-6-|x3|---7-7--7-7--6-6-------3------5------3------------|
A|--5-5--5-5--5-5--5-5--------5-5--5-5--5-5-------3------5------3------------|
D|--------------------------------------------3-3-3--5-5-5--3-3-3------------|

RIFF
e|---------------------------------------------------------------------------|
B|---------------------------------------------------------------------------|
G|---------------------------------------------------------------------------|
D|--7-7--7-7--6-6--6-6---7-7--7-7--6-6--6-6--7-0-------3+--------------------|
A|--5-5--5-5--5-5--5-5---5-5--5-5--5-5--5-5------0-3-5-----------------------|
D|---------------------------------------------------------------------------|
                                                      A.H.          

e|---------------------------------------------------------------------------|
B|--------------------------------------------*-*----*-*----*-*--------------|
G|---------------------------------------------------------------------------|
D|--7-7--7-7--6-6--6-6---7-7--7-7--6-6------------3------5------3---5-5~~----|
A|--5-5--5-5--5-5--5-5---5-5--5-5--5-5------------3------5------3---5-5~~----|
D|--------------------------------------------3-3-3--5-5-5--3-3-3---5-5~~----|

VERSE 
e|---------------------------------------------------------------------------|
B|---------------------------------------------------------------------------|
G|---------------------------------------------------------------------------|
D|--0~-3-3--5~---3-3-3--------0~-3-3--5~-------------------------------------|
A|--0~-3-3--5~---3-3-3-|x3|---0~-3-3--5~-3-5-3~------------------------------|
D|--0~-3-3--5~---3-3-3--------0~-3-3--5~-3-5-3~------------------------------|

PRE-CHORUS
e|---------------------------------------------------------------------------|
B|--*-*-*-*-*-*-*-*-*-*-*-*-*-*-*-*-*-*-*-*-*-*-*-*--*-*---------------------|
G|---------------------------------------------------------------------------|
D|--3-3-3-3-3-3-3-3-3-3-3-3-3-3-3-3-3-3-3-3-3-3-3-3--5-5--5--5---------------|
A|--1-1-1-1-1-1-1-1-1-1-1-1-1-1-1-1-1-1-1-1-1-1-1-1--3-3--3--3---------------|
D|---------------------------------------------------------------------------|

CHORUS
e|---------------------------------------------------------------------------|
B|---------------------------------------------------------------------------|
G|-------5-------------------------------------------------------------------|
D|--7-7--5--5-5----------------3-3-3-3-3-3-3--5-5--5--5--5-------------------|
A|--5-5-----3-3--5-5-5--|x3|---1-1-1-1-1-1-1--3-3--3--3--3-------------------|
D|---------------5-5-5-------------------------------------------------------|

RIFF
VERSE
PRE-CHORUS
CHORUS
RIFF
SOLO (Pre-chorus x2, then Chorus)
CHORUS x2
SOLO 2 (Chorus)
RIFF

************************************
| *   Palm Mute
| ~   Hold Note
| b   Bend
| +   Harmonic
************************************

Enjoy!  Keep on Rockin' in Christ!

Here is the bands website.
www.myspace.com/letter7rocks
Tap to rate this tab
# A B C D E F G H I J K L M N O P Q R S T U V W X Y Z