Song name
# A B C D E F G H I J K L M N O P Q R S T U V W X Y Z

Letter Day Story - Ikaw Parin Acoustic tab

-----------------------------------------------------------------------------
			    Ikaw Parin - Letter Day Sory
-----------------------------------------------------------------------------
Tabbed by: JovinF
Email: jvn_famor_shino@yahoo.com ym,fb

Capo on 1 fret

Guitar I - Lead

Tuning: E standard

Intro: C-G-Am-F

Guitar I
e|----3-----1-0-------------3-----1~----------------------------------------|
B|--1---1~------3-1-3~----1---1~--------------------------------------------|
G|--------------------------------------------------------------------------|
D|--------------------------------------------------------------------------|
A|--------------------------------------------------------------------------|
E|--------------------------------------------------------------------------|

Verse:
C-Am-F-G

Pre-chorus:
Am-F-C-G

Chorus:
C-G-Am-F

(Verse)
(Pre-chorus)
(Chorus)

Guitar I
e|----8-(x16)--7-(x16)---7h8-(x5)-8-----------------------------------------|
B|------------------------------------7h9-(x5)-9----------------------------|
G|--------------------------------------------------------------------------|
D|--------------------------------------------------------------------------|
A|--------------------------------------------------------------------------|
E|--------------------------------------------------------------------------|

(Pre-chorus)
(Chorus 2)

Outro:
C-G-Am-F
F-C~
Tap to rate this tab
# A B C D E F G H I J K L M N O P Q R S T U V W X Y Z