Song name
# A B C D E F G H I J K L M N O P Q R S T U V W X Y Z

Letter Day Story - Ikaw Pa Rin Acoustic tab

Ikaw Pa Rin (Acoustic)
Letter Day Story

Intro:

C#-G#-Bbm-F#(pause)

e----------------------------------------------I
B-----9--------7-6---------------9-------------I
G--6-----6---------8-6-8------6-----6----------I
D----------------------------------------------I
A----------------------------------------------I
E----------------------------------------------I

  C#             G#         Bbm        F#     
Ilang araw na kitang hinahanap at wala ka
  C#               G#        Bbm               F#       
'Sang linggo nang nakalipas 'di ka pa rin nagpapakita

Refrain:
Bbm          F#	         C#       G#
Pano kung bigla ka lang iiwas at mawawala
Bbm         F#         C#    G#      
'Di to matatanggap ng buong buhay ko

Chorus:
C#          G#           Bbm               F#
Nais kong malaman mo na ikaw lang ang nasa puso ko
   C#       G#            Bbm              F#        C#
At kahit na anong mangyari ikaw pa rin ang iibigin ko

Verse:
C#           G#        Bbm           F#      
Ilang gabi na akong 'di makatulog sa kakaisip
C#        G#             Bbm         F#      
Lahat ng oras nasa iyo 'di mo pa rin napapansin

Refrain:
Bbm         F#          C#          G#
Pano kung bigla ka lang iiwas at mawawala
Bbm         F#        C#    G#
'Di to matatanggap ng buong buhay ko

Chorus:
C#          G#           Bbm               F#
Nais kong malaman mo na ikaw lang ang nasa puso ko
   C#       G#            Bbm              F#   
At kahit na anong mangyari ikaw pa rin ang iibigin ko

Bridge:
Bbm          F#        C#          G#
Sana lang ay maunawaan mo ang nasa isip ko
Bbm        F#             C#   G#
Gagawin ko ang lahat para lang sa iyo

Chorus:
C#          G#           Bbm               F#
Nais kong malaman mo na ikaw lang ang nasa puso ko
C#          G#           Bbm               F# 
At kahit na anong mangyari ikaw pa rin ang iibigin ko

outro:
C#-G#-Bb-F#-G#

e---------------------------------------------------I
B---------------------------------------------------I
G------------------------------------10-9-----------I
D--11-------11-------11h13-11-10-11-------13-11-----I
A-----11h13----11h13----------------------------11--I
E---------------------------------------------------I

e--------------------------------------------------------I
B--------------------------------------------------------I
G---------------10-11/13---11-10-------------------------I
D------11----13------------------13-11-------------------I
A---13----13---------------------------13-11-------------I
E-----------------------------------------------13---11~-I

e----------------------------------------------I
B--11/14-11-11---------------------------------I
G--------------13-13-11-11-10-10h11-10h11-10~--I
D----------------------------------------------I
A----------------------------------------------I
E----------------------------------------------I
Tap to rate this tab
# A B C D E F G H I J K L M N O P Q R S T U V W X Y Z