Song name
# A B C D E F G H I J K L M N O P Q R S T U V W X Y Z

Letter Day Story - Sama Sama tab

Sama-Sama 
by: Letter Day Story
Tab by: Jayvee 
Add me in F.B biboy_aballe@yahoo.com


	Dapat ung Tune ng Gitara nyo ay Eb-G#-C#-F#-Bb-Eb

    INTRO
     Guitar 1 
   	Eb----10-10--7-7--5-5--3-3---------Eb
	Bb----8--8---5-5--3-3--1-1--3-5-3--Bb	
	F#---------------------------------F#
	C#---------------------------------C#
	G#---------------------------------G#
	Eb---------------------------------Eb
     Guitar 1		
	12x to Paulit ulit 
   	Eb---------------------------------Eb
	Bb---------------------------------Bb	
	F#-7-9-11--------------------------F#
	C#---------------------------------C#
	G#---------------------------------G#
	Eb---------------------------------Eb
	
	Dapat ung Tune ng Gitara nyo ay Eb-G#-C#-F#-Bb-Eb

     Guitar 2 Rythm

	G-A 4x then G-D sabay kyo ni guitar 1

     Verse 1:

	G-----D--Bm--C#---D--Bm--C#--
	G-----D--Bm--C#---D--Bm--C#-- 
	G----A

     Chorus:
	D--F#--G--A
	D--F#--G--A

     1st adlib:

	Eb--12--10-------------------------------Eb
	Bb----------12--10-----------------------Bb	
	F#-----------------11--9--7-6-7-6-7--9-9-F#
	C#---------------------------------------C#
	G#---------------------------------------G#
	Eb---------------------------------------Eb

	Eb--12--10-------------------------------Eb
	Bb----------12--10-----------------------Bb	
	F#-----------------11--9--11--7----------F#
	C#---------------------------------------C#
	G#---------------------------------------G#
	Eb---------------------------------------Eb	

	Then Ulit Ung Verse 1 and Chorus Chords

     2nd adlib
	
	Eb----------------5----------------------Eb
	Bb--5-7-7--5-7-7----7-7--5-7-7-----------Bb	
	F#---------------------------------------F#
	C#---------------------------------------C#
	G#---------------------------------------G#
	Eb---------------------------------------Eb	

	Eb--7--5------------7-5------------------Eb
	Bb--------7--5----------7-5--------------Bb	
	F#-------------7------------7------------F#
	C#---------------------------------------C#
	G#---------------------------------------G#
	Eb---------------------------------------Eb
Tap to rate this tab
 
# A B C D E F G H I J K L M N O P Q R S T U V W X Y Z