Song name
# A B C D E F G H I J K L M N O P Q R S T U V W X Y Z

Letter Day Story - Kung Maibabalik tab

-------------------------------------------------------------------------------
			     Kung Maibabalik - Letter Day Story
-------------------------------------------------------------------------------
Tabbed by: ericsonornales
Email: ericson_ornales@yahoo.com or ornalesericson2yahoo.com

Tuning: Standard

===guys..solo lang to..kapa ko lang sana mgustuhan nyo.pkirate n rn .tnx


e|----10b---7-8--------------|----10b---7-8-----------|
B|--8-----------8--6-5-6/8-8-|--8------------8p5-5\3--|
G|---------------------------|------------------------|
D|---------------------------|------------------------|
A|---------------------------|------------------------|
E|---------------------------|------------------------|

e|----10b---7-8---------------------------------------|
B|--8-----------8--6-5-6/8-8/10-10p8-86\5-5----------|
G|----------------------------------------------------|
D|----------------------------------------------------|
A|----------------------------------------------------|
E|----------------------------------------------------|

e|------12b-12--10--8-8\7-7-|-----12b-12--10--88\7-7-|
B|--/10---------------------|--10---------------------|
G|--------------------------|-------------------------|
D|--------------------------|-------------------------|
A|--------------------------|-------------------------|
E|--------------------------|-------------------------|

e|--7h8/1515-15s17-12--|-/12b---/////-----------------|
B|---------------------|------------------------------|
G|---------------------|------------------------------|
D|---------------------|------------------------------|
A|---------------------|------------------------------|
E|---------------------|------------------------------|
Tap to rate this tab
 
# A B C D E F G H I J K L M N O P Q R S T U V W X Y Z