Letter Day Story - Kung Maibabalik tab

-------------------------------------------------------------------------------
                             Kung Maibabalik - Letter Day Story
-------------------------------------------------------------------------------
Tabbed by: Renzo C. Tud
E-mail: renzotud@yahoo.com

Tuning: Standard

~~~~ Accurate tong tab na to, kung mgiging tama ang pagkaka-intindi nyo,
1st time ko kasi magSubmit ng Tab dito, di aq masyadong maalam gumawa ng tab.
Pero kung maiintindihan nyo to, mga 99% sure na tama to~~~~


Guitar Solo

2:53
e|-------------------------|---------------------------|
B|------14--11h12----------|------14--11h12------------|
G|-9/11--------------11-11-|-9/11----------------------|
D|----------------13-------|----------------13--11-11--|
A|-------------------------|---------------------------|
E|-------------------------|---------------------------|

e|---------------------------------------------|
B|------14--11h12------------------------------|
G|-9/11--------------11-11-/13-13-\11-11-\8-8--|
D|----------------13---------------------------|
A|---------------------------------------------|
E|---------------------------------------------|
         1/2 (bend)
e|---------------------------------------|
B|----16-16brb-16--14-14\12-\11-11-------|
G|-13------------------------------------|
D|---------------------------------------|
A|---------------------------------------|
E|---------------------------------------|
         1/2 (bend)
e|-------------------------------------|
B|----16-16brb-16-14-14\11-\9-9--------|
G|-13----------------------------------|
D|-------------------------------------|
A|-------------------------------------|
E|-------------------------------------|
                       full  1/2   1/2   full  (bend)
e|-------14-14/16-11---------------------19b~--|
B|-11/12---------------14b~--16b~--17b~--------|
G|---------------------------------------------|
D|---------------------------------------------|
A|---------------------------------------------|
E|---------------------------------------------|


************************************

| /   slide up
| \   slide down
| h   hammer-on
| p   pull-off
| ~   vibrato
| +   harmonic
| x   Mute note
| b   Bend
| pb  Pre-bend
| br  Bend release
| pbr Pre-bend release
| brb Bend release bend

************************************
Tap to rate this tab
 
# A B C D E F G H I J K L M N O P Q R S T U V W X Y Z