Song name
# A B C D E F G H I J K L M N O P Q R S T U V W X Y Z

Letter Kills - Dont Believe tab

I submitted this a few minutes ago, but I realized I left something important
out, so here's the updated version.  Sorry!

------------------------------------------------------------------------------
              		     DON'T BELIEVE - Seether
------------------------------------------------------------------------------
Tabbed by: a jerk
Email: oc.phox@gmail.com

Tuning: Drop C (Drop D, Down 1 full step)

--This, based on how Seether plays their other songs, is how I feel "Don't
 Believe" is supposed to be played.  There may be comprehension mistakes at
 parts, and by listening to the song, you can probably tell which parts I'm
 talking about.  Some of them are not so obvious/easy to hear.  (In any case, I
 at least feel this is better than the other tab up here.)


Intro:        x3                     then            
D|---------------------------------------------------------------------------|
A|---------------------------------------------------------------------------|
F|---------------------------------------------------------------------------|
C|----5/7---/10---\7--------------------------------5/7----/10---10/12-------|
G|---------------------------------------------------------------------------|
C|0---------------------------------------------0----------------------------|
--After plucking 5, slide to 7 and then slide to 10 right before plucking 10.
  Probably didn't need to explain that, but whatever--listen for timing/accuracy

    x3
D|---------------------------------------------------------------------------|
A|---------------------------------------------------------------------------|
F|------------------------9---9-9-9-\-5---5-5-5/7----------------------------|
C|0---0-0-0-0-0---0-0-0-0-9---9-9-9-\-5---5-5-5/7----------------------------|
G|0---0-0-0-0-0---0-0-0-0-7---7-7-7-\-3---3-3-3/5----------------------------|
C|0---0-0-0-0-0---0-0-0-0----------------------------------------------------|

    x1
D|---------------------------------------------------------------------------|
A|---------------------------------------------------------------------------|
F|------------------------9--\--5--/--7---7-7-7-7----------------------------|
C|0---0-0-0-0-0---0-0-0-0-9--\--5--/--7---7-7-7-7----------------------------|
G|0---0-0-0-0-0---0-0-0-0-7--\--3--/--5---5-5-5-5----------------------------|
C|0---0-0-0-0-0---0-0-0-0----------------------------------------------------|


Verse:
D|---------------------------------------------------------------------------|
A|--------------------------------------------------------1------------------|
F|----2--------------2--------------2--------------2-------------------------|
C|-2h3-3p2--------2h3-3p2--------2h3-3p2--------2h3-3p2----------------------|
G|--------------------------2------------------------------------------------|
C|0--------------0--------------0--------------0-----------------------------|


Pre-Chorus: (Listen for timing)
D|---------------------------------------------------------------------------|
A|---------------------------------------------------------------------------|
F|---------------------------------------------------------------------------|
C|X-X-X-------X-X-X---X---X---X---0----------X-X-X-------X-X-X---X---2h3p2---|
G|X-X-X-------X-X-X---X---X---X---0----------X-X-X-------X-X-X---X-----------3
C|X-X-X-------X-X-X---X---X---X---0----------X-X-X-------X-X-X---X-----------|

D|---------------------------------------------------------------------------|
A|---------------------------------------------------------------------------|
F|---------------------------------------------------------------------------|
C|X-X-X-------X-X-X---X---X---X---0----------X-X-X-------X-X-X---X---1-------|
G|X-X-X-------X-X-X---X---X---X---0----------X-X-X-------X-X-X---X---1-------|
C|X-X-X-------X-X-X---X---X---X---0----------X-X-X-------X-X-X---X---1-------|


Chorus: Guitar 1
D|---------------------------------------------------------------------------|
A|---------------------------------------------------------------------------|
F|---------------------------------------------------------------------------|
C|0-----0---0-0---0---0-0-3-----3---3-3---3---3-/-8-----8---8-8---8---8-\-5--|
G|0-----0---0-0---0---0-0-3-----3---3-3---3---3-/-8-----8---8-8---8---8-\-5--|
C|0-----0---0-0---0---0-0-3-----3---3-3---3---3-/-8-----8---8-8---8---8-\-5--|

D|---------------------------------------------------------------------------|
A|---------------------------------------------------------------------------|
F|---------------------------------------------------------------------------|
C|---5---5-5---5---5---------------------------------------------------------|
G|---5---5-5---5---5---------------------------------------------------------|
C|---5---5-5---5---5---------------------------------------------------------|

D|---------------------------------------------------------------------------|
A|---------------------------------------------------------------------------|
F|---------------------------------------------------------------------------|
C|0-----0---0-0---0---0-0-3-----3---3-3---3---3-/-8-----8---8-8---8---8-\-10-|
G|0-----0---0-0---0---0-0-3-----3---3-3---3---3-/-8-----8---8-8---8---8-\-10-|
C|0-----0---0-0---0---0-0-3-----3---3-3---3---3-/-8-----8---8-8---8---8-\-10-|

D|---------------------------------------------------------------------------|
A|---------------------------------------------------------------------------|
F|---------------------------------------------------------------------------|
C|----10-10-10-10-10-10-10-10------------------------------------------------|
G|----10-10-10-10-10-10-10-10------------------------------------------------|
C|----10-10-10-10-10-10-10-10------------------------------------------------|

Chorus: Guitar 2 (Repeat X2)
D|*12-10--------12-------10--------12-------10-------12--------10--------12--|
A|--------10------10-10------10------10-10------10------10-10------10------10|
F|---------------------------------------------------------------------------|
C|---------------------------------------------------------------------------|
G|---------------------------------------------------------------------------|
C|---------------------------------------------------------------------------|
***The 12 note at the beginning is actually played right before the Chorus
 starts.  Again, listen for timing


Post-Chorus:
D|---------------------------------------------------------------------------|
A|---------------------------------------------------------------------------|
F|---------------------------------------------------------------------------|
C|10/12-12-12-12-0-3---3-3-3-0-10---10-10-10-0-5---X-X-15\12-----------------|
G|10/12-12-12-12-0-3---3-3-3-0-10---10-10-10-0-5---X-X-15\12-----------------|
C|10/12-12-12-12-0-3---3-3-3-0-10---10-10-10-0-5---X-X-15\12-----------------|

D|---------------------------------------------------------------------------|
A|---------------------------------------------------------------------------|
F|---------------------------------------------------------------------------|
C|10/12-12-12-12-0-3---3-3-3-0-10---10-10-10-0-5-----------------------------|
G|10/12-12-12-12-0-3---3-3-3-0-10---10-10-10-0-5-----------------------------|
C|10/12-12-12-12-0-3---3-3-3-0-10---10-10-10-0-5-----------------------------|


"Solo" part: Repeat 4x (Guitar 2)
D|---------17-19-17-19/20--19--17--19----------------------------------------|
A|------------------------------------------9---------5---------5/7----------|
F|---------------------------------------------------------------------------|
C|0(let_ring)----------------------------------------------------------------|
G|---------------------------------------------------------------------------|
C|---------------------------------------------------------------------------|

Guitar 1 (At the end of the 4th solo part)
D|---------------------------------------------------------------------------|
A|---------------------------------------------------------------------------|
F|---------------------------------------------------------------------------|
C|----------------------------------------------------3---------5------------|
G|----------------------------------------------------3---------5------------|
C|----------------------------------------------------3---------5------------|


The Outro has some weird effects on the guitars that I don't know the names off
 of the top of my head (that said, I also do not actually have the effects with
 my setup,) so this is probably not correct, since I am playing with, basically,
 the unplugged notes.  Here's my best shot, though

Outro:
D|---------------------------------------10--8--5----------------------------|
A|---------------------------------------------------------------------------|
F|---------------------------------------------------------------------------|
C|---------------------------------------------------------------------------|
G|7--7--6--6-----------7--6--7--------------------------------7--6--7--------|
C|---------------------------------------------------------------------------|


Song structure:

Intro
Verse
Pre-Chorus
Chorus
Post-chorus
Verse
Pre-Chorus
Chorus
Solo
Pre-Chorus
Pre-Chorus
Chorus
Chorus
Post-chorus
Post-chorus
Outro


Probably my favorite song on the album.  Enjoy!

| /  slide up
| \  slide down
| h  hammer-on
| p  pull-off
| x  Mute note
===============================================================================
Tap to rate this tab
# A B C D E F G H I J K L M N O P Q R S T U V W X Y Z