Song name
# A B C D E F G H I J K L M N O P Q R S T U V W X Y Z

Letter Kills - Clock Is Down Acoustic tab

Band:  Letter Kills
Song:  Clock Is Down (acoustic)

Tuning: Drop D

  Intro/verses:         (Guitar 1)
E|--------------------------------------------6-6---8-8-|
B|----------------11-11-----------------8-8---x-x---x-x-|
G|-------12-12----x--x-----12-12--------x-x---x-x---x-x-|
D|-10-10-10-10-10-10-10-10-10-10-10-6-6-6-6-6-6-6-6-6-6-|
A|-10-10-10-10-10-10-10-10-10-10-10-6-6-6-6-6-6-6-6-6-6-|
D|-10-10-10-10-10-10-10-10-10-10-10-6-6-6-6-6-6-6-6-6-6-|

  Bridge: (same struming as original song)
E|-----------------------------------------------------|
B|-6---------9-----------------------------------------|
G|-5---------8-----------------------------------------|
D|-3---------6-----------------------------------------|
A|-3---------6-----------------------------------------|
D|-3---------6-----------------------------------------|

			(Guitar 2)
E|-----------------------------------------------------|
B|-----------------------------------------------------|
G|-5---------------------------------------------------|
D|-5------6--------------------------------------------|
A|-3------6--------------------------------------------|
D|--------6--------------------------------------------|

Chorus:			(Guitar 2)
E|------------------------------------------------------|
B|-4----------8----11-----------------------------------|
G|-3----5-----7----10-----------------------------------|
D|-1----5-----5----8------------------------------------|
A|-1----3-----5----8------------------------------------|
D|-1----------5----8------------------------------------|


  Interlude:
E|------------------------------------------------------|
B|------------------------------------------------------|
G|-5----------------------------------------------------|
D|-5-----6----------------------------------------------|
A|-3-----6----------------------------------------------|
D|-------6----------------------------------------------|

End.
Tap to rate this tab
# A B C D E F G H I J K L M N O P Q R S T U V W X Y Z