Song name
# A B C D E F G H I J K L M N O P Q R S T U V W X Y Z

Letters And Lights - Pretty Letdown tab

Pretty Letdown. Lyrics at the bottom :D

-Kainenen Khaos

Intro: Riff
----------3-----------1----------------------|
----3-5-3------3-----3-----------------------|
---5-----5--5-5-5--45---5--------------------|
-------------5---5-------5-------------------|
---------------------------------------------|
---------------------------------------------|

----------3----------------------------------|
----3-5-3------3-----565---------------------|
---5-----5--5-5-5---5---5--------------------|
-------------5---5-7-----7-------------------|
---------------------------------------------|
---------------------------------------------|

Intro:
---3----3----3----3----5----3----------------|
---3----3----3----3----5----3----------------|
---5----4----5----4----5----4----------------|
---5----5----5----5----7----5----------------|
---3----3----3----3----7----5----------------|
-----------------------5----3----------------|

Verse1:
----3----3----5----3----------------|
----3----3----5----3----------------|
----5----4----5----4----------------|
----5----5----7----5----------------| 2x
----3----3----7----5----------------|
--------------5----3----------------|

Pre:

-1----3------------------------------|
-1----3------------------------------|
-2----4------------------------------|
-3----5------------------------------|
-3----5------------------------------|
-1----3------------------------------|

Chorus:

---3---3---1-3-5-8----1--3------------ -3-----|
---3---3---1-3-5-8----1--3------------ -3-----|
---5---4---2-4-5-9----2--4------------ -5-----|
---5---5---3-5-7-10---3--5------------ 2x -5--|
---3---5---3-5-7-10---3--5------------ -3-----|
-------3---1-3-5-8----1--3------------ -------|

Verse2:

----3----3----5----3----------------|
----3----3----5----3----------------|
----5----4----5----4----------------|
----5----5----7----5----------------| 2x
----3----3----7----5----------------|
--------------5----3----------------|

Pre:

-1----3------------------------------|
-1----3------------------------------|
-2----4------------------------------|
-3----5------------------------------|
-3----5------------------------------|
-1----3------------------------------|

Chorus:
---3---3---1-3-5-8----1--3------------|
---3---3---1-3-5-8----1--3------------|
---5---4---2-4-5-9----2--4------------|
---5---5---3-5-7-10---3--5------------| 2x
---3---5---3-5-7-10---3--5------------|
-------3---1-3-5-8----1--3------------|

Interlude:
-11----------------------------------------------|
-11----------------------------------------------|
-22---121212/-----------------------555--5-------|
-33---121212/------------5-7-77--t5-555--5-------|
-33---101010/------3-5-7-----77--a5-333--2-------|
-11------------5-7-----------55--p3--------------|

-1----0----0---------1---3-----------|
-1----1----1---------1---3-----------|
-2----2----0----3x---2---4-----------|
-3----2----2---------3---5-----------|
-3----0----3---------3---5-----------|
-1-------------------1---3-----------|


-----------------------------------
LYRICS
-----------------------------------

Loves like fine wine
Donít rush it, take your time
I know without a doubt
If you ever doubt, you will doubt it all the time
Those pretty eyes have run dry from the lesson that Iíve implied
and if you practice what I preach, it would be keeping you alive
And well
just keep your heart safe now.

Well your pretty letdown, pretty letdown
Put your drama down,
Keep your heart out of this town

Well your pretty letdown, pretty letdown
Put your drama down,
Keep your heart out of this town

I wish I had the guts to say
all that I wrote down in this song, to your face
because youíre so much more than apologies anyways
Iím sorry if Iíve ever changed, or acted like I never meant anything
but youíre so much more to me

Youíre alive and well
just keep your heart safe now.

Well your pretty letdown, pretty letdown
Put your drama down,
Keep your heart out of this town

Well your pretty letdown, pretty letdown
Put your drama down,
Keep your heart out of this town

Well your pretty letdown, pretty letdown
Put your drama down,
Keep your heart out of this town

Well your pretty letdown, pretty letdown
Put your drama down,
Keep your heart out of this town

Youíre made of, what youíre scared of.
just keep your hands tight, and keep your head up
Just keep your head up, just keep your head up
and keep a smile on your cheek.
If you look so hard, youíll never find it
Just take it slow, weíll take our time and
I know without a doubt, if you ever doubt
youíll doubt it all the time.
Tap to rate this tab
# A B C D E F G H I J K L M N O P Q R S T U V W X Y Z