Song name
# A B C D E F G H I J K L M N O P Q R S T U V W X Y Z

Letters To Cleo - Big Star tab

-------------------------------------------------------------------------------
			     BIG STAR - Letters to Cleo
-------------------------------------------------------------------------------
Tabbed by:Mick Molloy
Email:rangga@y7mail.com

Tuning: Standard

e|---------------------------------------------------------------------------|
B|---------------------------------------------------------------------------|
G|----/12----12----12p11-11-11-----------------------------------------------|
D|------------------------------12----10----12p10--10--12/14-----------------|
A|---------------------------------------------------------------------------|
E|---------------------------------------------------------------------------|

e|---------------------------------------------------------------------------|
B|---------------------------------------------------------------------------|
G|-----------11---------------------7---------8------------------------------|
D|-----13----------14------------/8---------8--------------------------------|
A|---------------------------------------------------------------------------|
E|---------------------------------------------------------------------------|

e|---------------------------------------------------------------------------|
B|-----11b----11----10----10----8--6--5--------------------------------------|
G|-----10b----10----10----9-----7--5--5--------------------------------------|
D|---------------------------------------------------------------------------|
A|---------------------------------------------------------------------------|
E|---------------------------------------------------------------------------|

e|----------7----------8-----------------------------------------------------|
B|--------7---7------8---8-------7-----8-------------------------------------|
G|-----/8----------/9-----------8-----7--------------------------------------|
D|---------------------------------------------------------------------------|
A|---------------------------------------------------------------------------|
E|---------------------------------------------------------------------------|


| /  slide up
| h  hammer-on
| p  pull-off
===============================================================================
here's the solo 4 big star by letters to cleo. if u listen to the song, there's a few 
bends than ive put in, this is pretty basic.
the chords for the rest of this song are on the internet somewhere.
any problems or suggestions, just email me
Tap to rate this tab
# A B C D E F G H I J K L M N O P Q R S T U V W X Y Z