Song name
# A B C D E F G H I J K L M N O P Q R S T U V W X Y Z

Letters To Cleo - From Under The Dust chords

Highlighted       Show chord diagrams
From Under the Dusk, by Letters to Cleo
Tab by: Lon Turner
loudlon@yahoo.com

Standard tuning EADGBE
Listen to song for strumming patterns

Chord list:


E |--3----0---1------------------------------------------------|
G |--3----1---1-------3----------------------------------------|
D |--0----0---4---4---2---2------------------------------------|
B |--0----2---3---4---0---2------------------------------------|
A |--2----3---3---2-------0------------------------------------|
E |--3--------1------------------------------------------------|
     G    C   F   B   D   A



Opening riff:

E |---------------------------------------0------1----------|
G |---------0----------------0h-1p-0------1------0----------|
D |-----2-----2---------2------------2----0------2----------|
B |---2---------2-----2----------------2--2------3----------|
A |-0-----0-------0-------0---------------3------3----------|
E |----------------------------------------------1----------|
                                          C      F


(Verse 1)

G                 C
It gets loud down here

             G
Fourteen scurrying feet

                       C
Getting as far away as feet can carry


(Chorus 1.1)

B   C  D               B     C       D
From...under the dust I hear...every one of you

B   C  D              B     C       A
From...under the dust I can feel it all



(Chorus 1.2)

                       C    F
I know what you're thinking

A                     C   F
I know what you're saying


(Verse 2)


G              C
It was another time

                   G
I guess you were a friend of mine

                        C
It was another time but not much to recall


(Chorus 2.1)

B   C  D               B     C       D
From...under the dust I hear...every one of you

B   C  D               B        C   A
From...under the dust I can feel it all


(Chorus 2.2)

                       C   F                           A
I know what you're thinking...it isn't hard to tell at all

                     C      F
I know what you're saying...you're not whispering


(Interlude)

A   C   F (x 2)


Repeat Chorus 2.1


Repeat Chorus 2.2 (x2)


And you're done!
Tap to rate this tab
# A B C D E F G H I J K L M N O P Q R S T U V W X Y Z