Song name
# A B C D E F G H I J K L M N O P Q R S T U V W X Y Z

Letters To The Living - Permanent Song Name tab

Key:*-palm mute
    p-pulloff
    h-hammeron
    s-slide
    ~-let ring
    1-Guitar 1
    2-Guitar 2
    B-Both guitars

0:00-0:11
C#|-----------------------------------|
G#|-----------------------------------|
E |-----------------------------------|
B |-----------------------------------|
F#|-------8---------------------------|
B |-000-0---0-0-0-000-000-------------|B
    *** *   * * * *** ***
C#|-----------------------------------|
G#|-----------------------------------|
E |-----------------------------------|
B |-----------------------------------|
F#|-------10--------------------------|
B |-888-8----8-8-8-101010-101010------|b
    *** *    * * * * * *  * * *
C#|-----------------------------------|
G#|-----------------------------------|
E |-----------------------------------|
B |-----------------------------------|
F#|-------8---------------------------|
B |-000-0---0-0-0-000-000-------------|B
    *** *   * * * *** ***
C#|-----------------------------------|
G#|-----------------------------------|
E |-----------------------------------|
B |-----------------------------------|
F#|-------10--------------------------|
B |-888-8----8-8-8-777-777----(slide)-|B
    *** *    * * * *** ***

0:12-0:22
C#|-----------------------------------|
G#|-----------------------------------|
E |-----------------------------------|
B |-----------------------------------|
F#|-------8-------------8-------------|
B |-000-0---0-0-0-000-0---0-0-0-------|1
    *** *   * * * *** *   * * *
C#|-----------------------------------|
G#|-----------------------------------|
E |-----------------------------------|
B |-----------------------------------|
F#|-------12-------------12-----------|
B |-000-0----0-0-0-000-0----0-0-0-----|2
    *** *    * * * *** *    * * *
C#|-----------------------------------|
G#|-----------------------------------|
E |-----------------------------------|
B |-----------------------------------|
F#|-------8-------------8-------------|
B |-888-8---8-8-8-777-7---7-7-7-------|1
    *** *   * * * *** *   * * *
C#|-----------------------------------|
G#|-----------------------------------|
E |-----------------------------------|
B |-----------------------------------|
F#|-------12-------------10-----------|
B |-888-8----8-8-8-777-7----7-7-7-----|2
    *** *    * * * *** *    * * *


0:23-0:33
C#|-----------------------------------|
G#|-----------------------------------|
E |-----------------------------------|
B |-----------------------------------|
F#|----------7----7----------7----7---|
B |-00000000---00---00000000---00-----|1
    ********   **   ********   **
C#|-----------------------------------|
G#|-----------------------------------|
E |-----------------------------------|
B |-----------------------------------|
F#|----------10----10---------10----10|
B |-00000000----00----00000000----00--|2
    ********    **    ********    **
C#|-----------------------------------|
G#|-----------------------------------|
E |-----------------------------------|
B |-----------------------------------|
F#|----------7----7----------7----5---|
B |-88888888---88---77777777---77-----|1
    ********   **   ********   **
C#|-----------------------------------|
G#|-----------------------------------|
E |-----------------------------------|
B |-----------------------------------|
F#|----------10--10----------10----8--|
B |-88888888---88---77777777---77-----|2
    ********   **   ********   **


0:33-0:38
C#|-----------------------------------|
G#|-----------------------------------|
E |-----------------------------------|
B |-----3------3------3----7-5-3-5--0~|
F#|-------5------5------5-----------0~|
B |-0-0-----0-0----0-0--------------0~|B
    * *     * *    * *

0:39-1:01 (chorus x2)
C#|-----------------------------------|
G#|-----------------------------------|
E |-----------------------------------|
B |-5557775557775555-8887778887778888-|
F#|-5555555555555555-8888888888888888-|
B |-5555555555555555-8888888888888888-|B


C#|-----------------------------------|
G#|-----------------------------------|
E |-----------------------------------|
B |-2223332223332222-3333333355555555-|
F#|-0000000000000000-3333333355555555-|
B |-0000000000000000-3333333355555555-|B


1:02-1:13 (breakdown, woo, x4)
C#|-----------------------------------|B
G#|-----------------------------------|
E |-----------------------------------|
B |-----------------------------------|
F#|-----------------------------------|
B |-000000000-0--000-0----------------|
    ********* *  *** *
pinch harmonic on third fret, 6th string, listen to song


1:14-1:23
C#|-----------------------------------|
G#|-----------------------------------|
E |-----------------------------------|
B |-----------------------------------|
F#|----8-7-8-7-8-7--------------------|
B |-00--0-0-0-0-0---------------------|1
    **  * * * * *
C#|-----------------------------------|
G#|-----------------------------------|
E |-----------------------------------|
B |-----------------------------------|
F#|----12-10-12-10-12-10--------------|
B |-00---0--0--0--0--0----------------|2
    **   *  *  *  *  *
C#|-----------------------------------|
G#|-----------------------------------|
E |-----------------------------------|
B |-----------------------------------|
F#|----8-7-8-7-8-7--------------------|
B |-88--8-8-8-8-8---------------------|1
    **  * * * * *
C#|-----------------------------------|
G#|-----------------------------------|
E |-----------------------------------|
B |-----------------------------------|
F#|----12-10-12-10-12-10--------------|
B |-88---8--8--8--8--8----------------|2
    **   *  *  *  *  *
C#|-----------------------------------|
G#|-----------------------------------|
E |-----------------------------------|
B |-----------------------------------|
F#|----8-7-8-7-8-7--------------------|
B |-77--7-7-7-7-7---------------------|1
    **  * * * * *
C#|-----------------------------------|
G#|-----------------------------------|
E |-----------------------------------|
B |-----------------------------------|
F#|----12-10-12-10-12-10--------------|
B |-77---7--7--7--7--7----------------|2
    **   *  *  *  *  *
C#|-----------------------------------|
G#|-----------------------------------|
E |-----------------------------------|
B |-----------------------------------|
F#|-----8-7-10-12-10-8----------------|
B |-00---0-0--0--0--0-----------------|1
    **   * *  *  *  *
C#|-----------------------------------|
G#|-----------------------------------|
E |-----------------------------------|
B |-----------------------------------|
F#|----12-10-13-15-13-12--------------|
B |-00---0--0--0--0--0----------------|2
    **   *  *  *  *  *


1:24-1:33
C#|-----------------------------------|
G#|-----------------------------------|
E |-----------------------------------|
B |-----------------------------------|
F#|----8-7-8-7-8-7--------------------|
B |-00--0-0-0-0-0---------------------|1
    **  * * * * * 
C#|-----------------------------------|
G#|-----------------------------------|
E |-----------------------------------|
B |-----------------------------------|
F#|----12-10-12-10-12-10--------------|
B |-00---0--0--0--0--0----------------|2
    **   *  *  *  *  *
C#|-----------------------------------|
G#|-----------------------------------|
E |-----------------------------------|
B |-----------------------------------|
F#|----8-7-8-7-8-7--------------------|
B |-88--8-8-8-8-8---------------------|1
    **  * * * * *
C#|-----------------------------------|
G#|-----------------------------------|
E |-----------------------------------|
B |-----------------------------------|
F#|----12-10-12-10-12-10--------------|
B |-88---8--8--8--8--8----------------|2
    **   *  *  *  *  *
C#|-----------------------------------|
G#|-----------------------------------|
E |-----------------------------------|
B |-----------------------------------|
F#|----8-7-8-7-8-7--------------------|
B |-77--7-7-7-7-7---------------------|1
    **  * * * * * 
C#|-----------------------------------|
G#|-----------------------------------|
E |-----------------------------------|
B |-----------------------------------|
F#|----12-10-12-10-12-10--------------|
B |-77---7--7--7--7--7----------------|2
    **   *  *  *  *  *
C#|-----------------------------------|
G#|-----------------------------------|
E |-----------------------------------|
B |-----------------------------------|
F#|----8-7-10-8-13-12-----------------|
B |-00--0-0--0-0--0-------------------|1
    **  * *  * *  *
C#|-----------------------------------|
G#|-----------------------------------|
E |-----------------------------------|
B |-----------------------------------|
F#|----12-10-13-12-17-15--------------|
B |-00---0--0--0--0--0----------------|2
    **   *  *  *  *  *

1:34-1:44
C#|-----------------------------------|
G#|-----------------------------------|
E |-----------------------------------|
B |------3------3------3--------------|
F#|-------5------5------5-------------|
B |--0-0----0-0----0-0----000-000-----|B
     * *    * *    * *    *** ***
C#|-----------------------------------|
G#|-----------------------------------|
E |-----------------------------------|
B |------2------2------2--------------|
F#|-------5------5------5-------------|
B |--0-0----0-0----0-0----000-000-----|B
     * *    * *    * *    *** ***
C#|-----------------------------------|
G#|-----------------------------------|
E |-----------------------------------|
B |------3------3------3--------------|
F#|-------5------5------5-------------|
B |--0-0----0-0----0-0----000-000-----|B
     * *    * *    * *    *** ***
C#|-----------------------------------|
G#|-----------------------------------|
E |-----------------------------------|
B |------5------7------8--------------|
F#|-------5------5------5~~~----------|
B |--0-0----0-0----0-0----------------|B
     * *    * *    * *

1:45-1:55
C#|-----------------------------------|
G#|-----------------------------------|
E |-----------------------------------|
B |-----------------------------------|
F#|-----------------------------------|
B |-0--0--0-0--0--0-0-0-000-000---x3--|B
    *  *  * *  *  * * * *** ***
C#|-----------------------------------|
G#|-----------------------------------|
E |-----------------------------------|
B |-----------------------------------|
F#|-----------------------------------|
B |5-7-8-7-10-8-7-5-(16thnotetrempick)|B


1:56-2:06
G#|-----------------------------------|
E |-----------------------------------|
B |-----------------------------------|
F#|-------8---------------------------|
B |-000-0---0-0-0-000-000-------------|B
    *** *   * * * *** ***
C#|-----------------------------------|
G#|-----------------------------------|
E |-----------------------------------|
B |-----------------------------------|
F#|-------10--------------------------|
B |-888-8----8-8-8-101010-101010------|b
    *** *    * * *  ***    ***
C#|-----------------------------------|
G#|-----------------------------------|
E |-----------------------------------|
B |-----------------------------------|
F#|-------8---------------------------|
B |-000-0---0-0-0-000-000-------------|B
    *** *   * * * *** ***
C#|-----------------------------------|
G#|-----------------------------------|
E |-----------------------------------|
B |-----------------------------------|
F#|-------10--------------------------|
B |-888-8----8-8-8-777-777----(slide)-|B
    *** *    * * * *** ***

2:07-2:18 (x2)
C#|-----------------------------------|
G#|-----------------------------------|
E |-----------------------------------|
B |-----------------------------------|
F#|----------7----7----------7----7---|
B |-00000000---00---00000000---00-----|1
    ********   **   ********   **
C#|-----------------------------------|
G#|-----------------------------------|
E |-----------------------------------|
B |-----------------------------------|
F#|----------10----10---------10----10|
B |-00000000----00----00000000----00--|2
    ********    **    ********    **
C#|-----------------------------------|
G#|-----------------------------------|
E |-----------------------------------|
B |-----------------------------------|
F#|----------7----7----------7----5---|
B |-88888888---88---77777777---77-----|1
    ********   **   ********   **
C#|-----------------------------------|
G#|-----------------------------------|
E |-----------------------------------|
B |-----------------------------------|
F#|----------10--10----------10----8--|
B |-88888888---88---77777777---77-----|2
    ********   **   ********   **

2:18-2:23
C#|-----------------------------------|
G#|-----------------------------------|
E |-----------------------------------|
B |-----3------3------3----7-5-3-5--0~|
F#|-------5------5------5-----------0~|
B |-0-0-----0-0----0-0--------------0~|B
    * *     * *    * *

2:24-2:52 (chorus x2)
C#|-----------------------------------|
G#|-----------------------------------|
E |-----------------------------------|
B |-5557775557775555-8887778887778888-|
F#|-5555555555555555-8888888888888888-|
B |-5555555555555555-8888888888888888-|B


C#|-----------------------------------|
G#|-----------------------------------|
E |-----------------------------------|
B |-2223332223332222-333333335--------|
F#|-0000000000000000-333333335--------|
B |-0000000000000000-333333335--------|B
Tap to rate this tab
 
# A B C D E F G H I J K L M N O P Q R S T U V W X Y Z