Song name
# A B C D E F G H I J K L M N O P Q R S T U V W X Y Z

Letto - Permintaan Hati tab

Help us improve GuitareTab! Take a short survey!
Kunjungi Blog Saya di

http://f0rth3w1n6.dagdigdug.com/

Solo gitar

 pinch harmonic                                   pinch harmonic
  | |                                                   |
|-----------------------------------------------------------|
|-7-7----11-12---11-12------11-----9-----9----7-------------|
|--------------13------11-13---9-11--8-11--6-8---3-4-6--3~--|
|-----------------------------------------------------------|
|-----------------------------------------------------------|
|-----------------------------------------------------------|

|----------------------------9-7---11-9--12-11----14--------|
|-14-14----------9--9---12-9--------------------------------|
|-----------11-9--11-11-------------------------------------|
|-------9-9-------------------------------------------------|
|-----------------------------------------------------------|
|-----------------------------------------------------------|

|-/14--/14--/14--/14--16~-----16-14---14h16-12--12h14-11----|
|-----------------------------------------------------------|
|-----------------------------------------------------------|
|-----------------------------------------------------------|
|-----------------------------------------------------------|
|-----------------------------------------------------------|

					      pinch harmonic
						 |
|-11h12-9--9h11-7--7h9-6--6h7-4--4h6-2----------------------------|
|---------------------------------------4h5p4-4--2----------------|
|--------------------------------------------------4h6-4h6-4h6--3-|
|-----------------------------------------------------------------|
|-----------------------------------------------------------------|
|-----------------------------------------------------------------|

|-----------------4--6-7--9-11--12-14-----------------16-18-19----|
|---------4-5---7----------------------------16-17-19-------------|
|-3--4-6-------------------------------16-18----------------------|
|-----------------------------------------------------------------|
|-----------------------------------------------------------------|
|-----------------------------------------------------------------|
Related for Permintaan Hati tab