Guitaretab - guitar tabs
Song name
# A B C D E F G H I J K L M N O P Q R S T U V W X Y Z

Letu Stuke - Pero Papacorder tab

Highlighted       Show chord diagrams
-------------------------------------------------------------------------------
			     Pero Papacorder - Letu Stuke
-------------------------------------------------------------------------------
Tabbed by: gwyder
Email: mirzamerdovic@gmail.com

Tuning: EADGBE

Intro & Verse:
e|-5-5-4-4-2-2-2-2--5-5-4-4-4-4-2-2-------------------------------------------|
B|-5-5-5-5-2-2-2-2--5-5-5-4-5-4-2-2-------------------------------------------|
G|-6-6-6-6-3-3-3-3--6-6-6-4-6-4-3-3-------------------------------------------|
D|-7-7-6-6-4-4-4-4--7-7-6-4-6-4-4-4-------------------------------------------|
A|-7-7-4-4-4-4-4-4--7-7-4-4-4-4-4-4-------------------------------------------|
E|-5-5-----2-2-2-2--5-5---------2-2-------------------------------------------|

Verse:
Schmeichel se raduje
celo Klofac sudi
e sto sam se napusio
umijte me ljudi
[ Tab from: http://www.guitaretab.com/l/letu-stuke/112836.html ]
Verse:
Schmeichel i Radoje
gdje su te doline
selo s trolejbusom
gledam sa visine

O ne, ne, ne, ne

Chorus:
A C# F# 
     Pero Papacoder
A C# F#          F
     Mirso Motorola
A C# F#
     napokon su sretni
A C# F#          F
     sad su kompetentni

Verse:
Schmeichel i Radoje
celo Klofac sudi
alaj bi se sikicali
i vi dobri ljudi

Verse:
Schmeichel obecava
brda i doline
selo s trolejbusom
gleda sa visine

O ne, ne, ne, ne

Chorus: 2x

Chorus:
Oj, disko, disko, disko
u tebi se narod stisko
sastale se raja, rulja
omladina sizi, ljulja
bubanj tuce i udara
palicama buku stvara
a curice skacu i zvakace zvacu
        (4x)


http://www.myspace.com/letustuke

| /  slide up
| \  slide down
| h  hammer-on
| p  pull-off
| ~  vibrato
| +  harmonic
| x  Mute note
===============================================================================
Related for Pero Papacorder tab
×
Pero Papacorder