Song name
# A B C D E F G H I J K L M N O P Q R S T U V W X Y Z

Letzte Instanz - Komm tab

Title: Komm
Artist: Letzte Instanz
Album: Schuldig
Tempo = 67
Electric Guitar


Das ganze mehrmals spielen

E |----||---------------------------------------------------|
B |----||---------------------------------------------------|
G |----||---------------------------------------------------|
D |----||---------------------------------------------------|
A |----||---------------------------------------------------|
E |----||-2--4--4--2--4--4-----2--2--4--4--2--2--4--5L-5----|
B |----||-0--2--2--0--2--2-----0--0--2--2--0--0--2--3L-3----|


---------------------------------------------------||
---------------------------------------------------||
---------------------------------------------------||
---------------------------------------------------||
---------------------------------------------------||
--2--4--4--2--4--4-----2--2--4--4--2--2--4--5L-5---||
--0--2--2--0--2--2-----0--0--2--2--0--0--2--3L-3---||


---------------------------------------------------|
---------------------------------------------------|
o--------------------------------------------------|
o--------------------------------------------------|
---------------------------------------------------|
-2--4--4--2--4--4-----2--2--4--4--2--2--4--5L-5----|
-0--2--2--0--2--2-----0--0--2--2--0--0--2--3L-3----|


---------------------------------------------------||
---------------------------------------------------||
---------------------------------------------------||
---------------------------------------------------||
---------------------------------------------------||
--2--4--4--2--4--4-----2--2--4--4--2--2--4--5L-5---||
--0--2--2--0--2--2-----0--0--2--2--0--0--2--3L-3---||


|---------------------------------------------------|
|---------------------------------------------------|
|---------------------------------------------------|
|---------------------------------------------------|
|---------------------------------------------------|
|-2--4--4--2--4--4-----2--2--4--4--2--2--4--5L-5----|
|-0--2--2--0--2--2-----0--0--2--2--0--0--2--3L-3----|


---------------------------------------------------||
---------------------------------------------------||
---------------------------------------------------||
---------------------------------------------------||
---------------------------------------------------||
--2--4--4--2--4--4-----2--2--4--4--2--2--4--5L-5---||
--0--2--2--0--2--2-----0--0--2--2--0--0--2--3L-3---||

|---------------------------------------------------|
|---------------------------------------------------|
|---------------------------------------------------|
|---------------------------------------------------|
|---------------------------------------------------|
|-2--4--4--2--4--4-----2--2--4--4--2--2--4--5L-5----|
|-0--2--2--0--2--2-----0--0--2--2--0--0--2--3L-3----|


---------------------------------------------------|||
---------------------------------------------------|||
---------------------------------------------------|||
---------------------------------------------------|||
---------------------------------------------------|||
--2--4--4--2--4--4-----2--2--4--4--2--2--4--5L-5---|||
--0--2--2--0--2--2-----0--0--2--2--0--0--2--3L-3---|||
Tap to rate this tab
# A B C D E F G H I J K L M N O P Q R S T U V W X Y Z