Song name
# A B C D E F G H I J K L M N O P Q R S T U V W X Y Z

Level 42 - Love Games tab

Love Games
Level 42
Level 42 1981


Another great keyboard riff:
Note that a trem bar helps on 
those sustained open strings!

0:16

E|------------------------|
B|-3p2p0---3p2p0--0-0h2-0-|
G|------0-------0---------|
D|------------------------|
A|------------------------|
E|------------------------|

E|------------------------|
B|-3p2p0---3p2p0--0-0h2-0-|
G|--------------0---------|
D|------4-----------------|
A|------------------------|
E|------------------------|

E|------------------------|
B|-3p2p0---3p2p0--0-0h2-0-|
G|------0-------0---------|
D|------------------------|
A|------------------------|
E|------------------------|

E|-3p2p0---3p2p0---0h2p0-|
B|------0--------3-------|
G|-----------------------|
D|-----------------------|
A|-----------------------|
E|-----------------------|


Tap to rate this tab
 
# A B C D E F G H I J K L M N O P Q R S T U V W X Y Z