Song name
# A B C D E F G H I J K L M N O P Q R S T U V W X Y Z

Level 42 - Theme To Margaret tab

Theme to Margaret
Level 42
The Early Tapes 1982



Keyboard arranged for guitar:

E|--------------------------------|
B|---5-4--------------5-4-------7-|
G|--4----6-4-6---4---4----6-4-6---|
D|-4-----------7----4-------------|
A|--------------------------------|
E|--------------------------------|


E|---4------------------------------|
B|-7---5-7-4-5----------5-4---------|
G|-------------6-4-----4----4-------|
D|-----------------7--4-------4-----|
A|------------------------------7-6-|
E|----------------------------------|


E|--------------------------------|
B|---5-4--------------5-4-------7-|
G|--4----6-4-6---4---4----6-4-6---|
D|-4-----------7----4-------------|
A|--------------------------------|
E|--------------------------------|


E|---4---------------------------------------------|
B|-7---5-7-4-5----------5-4------------------------|
G|-------------6-4-----4----4--------4-6-4---4-----|
D|-----------------7--4-------4------------7---4-6-|
A|------------------------------7------------------|
E|-------------------------------------------------|
Tap to rate this tab
 
# A B C D E F G H I J K L M N O P Q R S T U V W X Y Z