Song name
# A B C D E F G H I J K L M N O P Q R S T U V W X Y Z

Level 42 - Mr Pink tab

Help us improve GuitareTab! Take a short survey!
Mr. Pink
Level 42
Early Tapes/Strategy 1981
sam-lennon-singleton@hotmail.co.uk



Keyboard Riff arr for guitar:

  0:30 & 1:00 etc
E|--------------------------5-7-----------|
B|-7p5~---5---7-8---8p7p5-------7b-rb-p5~-|
G|------6---6-------------6---------------|
D|----------------------------------------|
A|----------------------------------------|
E|----------------------------------------|

E|--------------------------5-7-----------|
B|-7p5~---5---7-8---8p7p5-------7b-rb-p5~-|
G|------6---6-------------6---------------|
D|----------------------------------------|
A|----------------------------------------|
E|----------------------------------------|



Related for Mr Pink tab