Song name
# A B C D E F G H I J K L M N O P Q R S T U V W X Y Z

Level 70 Elite Tauren Chieftain - Rogues Do It From Behind tab

L70ETC
Udder Chaos
Rogues Do It From Behind
Tabbed by: Justin Nash
Email: tuscanincs@yahoo.com

 /    slide up
 \    slide down
 ^    bend
 h    hammer-on
 p    pull-off
 x    Mute note
 ph Pinch Harmonic
 .    P.M.
==================================================================================

Tuning: E,A,D,G,B,e

  Intro Riff  x2

e|-------------------------------------------------|
B|-------------------------------------------------|
G|-----------------------------------------------3-|
D|-------------------------------------------------|
A|-7-7--6-----3--5--3--2-3-2--7-7--6-----3--5--2---|
E|-5-5-----5------------------5-5-----5------------|
        ph             . . .       ph            ph

e|-------------------------------------------------|
B|-------------------------------------------------|
G|-------------------------------------------------|
D|-------------------------------------------------|
A|-7-7--6-----3--5--3--2-3-2--7-7--6-----3--5--2---|
E|-5-5-----5------------------5-5-----5------------|
        ph             . . .      ph

  Verse Riff  x2
e|-------------------------------------------------|
B|-------------------------------------------------|
G|-------------------------------------------------|
D|------8----7----5----4-5-4-------6-----5--7--4---|
A|-7-7--6----5----3----2-3-2--7-7--4-----3--5--2---|
E|-5-5------------------------5-5-----5------------|
                       . . .
  Chorus Riff x1
e|----------------------------------------------------------|
B|----------------------------------------------------------|
G|----------------------------------------------------------|
D|----------------------------------------------------------|
A|-8-8-8--8-\6--8--9--8--8-/9-\8----8-8-8--8-\6--8--9--6----|
E|-6-6-6--6-\4--6--7--6--6-/7-\6----6-6-6--6-\4--6--7--4----|

e|----------------------------------------------------------|
B|----------------------------------------------------------|
G|----------------------------------------------------------|
D|----------------------------------------------------------|
A|-8-8-8--8-\6--8--9--8--8-/9-\8----8-8-8-------------------|
E|-6-6-6--6-\4--6--7--6--6-/7-\6----6-6-6-------------------|

Repeat Intro Riff x1

Repeat Verse Riff x2

Repeat Chorus Riff x1


  Interlude Intro Riff x1

e|-------------------------------------------------|
B|-------------------------------------------------|
G|-----------------------------------------------3-|
D|-------------------------------------------------|
A|-7--------------------4-----7--------------------|
E|-5--------------------------5--------------------|
                        ph                       ph

e|----------------------------------------------------|
B|----------------------------------------------------|
G|----------------------------------------------------|
D|----------------------------------------------------|
A|-7--------------------4-----777777777777777777777777|
E|-5--------------------------555555555555555555555555|
                        ph    ........................

  Interlude Riff x8
e|-------------------------------------------------|
B|-------------------------------------------------|
G|-------------------------------------------------|
D|-------------------------------------------------|
A|----------------5h7h8------------5h7h8-----------|
E|-555-5h7h8--555--------555-5h7h8-------3---------|
   ...        ...        ...

 Interlude Riff2 x2
e|-------------------------------------------------|
B|-------------------------------------------------|
G|-------------------------------------------------|
D|--------5--------------8----------5--------------|
A|-5--555-3--5--7--777-7-6---5--555-3--5--7--777-7-|
E|-3--333----3--5--555-5-----3--333----3--5--555-5-|
      ...          ...          ...          ...

  Solo
e|---------------------------------------------------------------------------|
B|--------------------------------------------------------8h10p8-10h11p10-10-|
G|-/10-9--7-9-7-6-7-6------------------6h7p6-7h9p7-9h10p9--------------------|
D|--------------------7--5797----7h8p7---------------------------------------|
A|---------------------------------------------------------------------------|
E|---------------------------------------------------------------------------|


e|-------------------10^-10----17^---17---17-18-20-18h20p18-17-------------|
B|-10-11-13-11-10-13-------------------------------------------20-18-17----|
G|-------------------------------------------------------------------------|
D|-------------------------------------------------------------------------|
A|-------------------------------------------------------------------------|
E|-------------------------------------------------------------------------|

e|-------------------------------------------------------------------------|
B|-------------------------------------------------------------------------|
G|-12-14-15-12-14-15-12-14-15-12-14-15-17-15-14-12-14-15-17-15-14-12-14-15-|
D|-------------------------------------------------------------------------|
A|-------------------------------------------------------------------------|
E|-------------------------------------------------------------------------|

e|-16-14-12----12-14-15^------17^---------------------|
B|----------16----------------------------------------|
G|----------------------------------------------------|
D|----------------------------------------------------|
A|----------------------------------------------------|
E|----------------------------------------------------|


Repeat Intro Riff x1

Repeat Verse Riff x2

Repeat Chorus Riff x1

Yes I know the ending of the solo isn't right. But if you have any revisions to make to
make them and let me know at tuscanincs@yahoo.com cause i really wanna get this song
right lol. This is my first tab so be nice, I just thought the other tab on here was so 
it needed revising.

LOK'TAR! BLOOD AND THUNDER! FOR THE HORDE! DEATH TO THE ALLIANCE!
Tap to rate this tab
# A B C D E F G H I J K L M N O P Q R S T U V W X Y Z