Song name
# A B C D E F G H I J K L M N O P Q R S T U V W X Y Z

Level 70 Elite Tauren Chieftan - I Am Murloc tab

#----------------------------------PLEASE NOTE---------------------------------#
#This file is the author's own work and represents their interpretation of the #
#song. You may only use this file for private study, scholarship, or research. #
#------------------------------------------------------------------------------##

                                   I AM MURLOC
                 As recorded by Level 70 Elite Tauren Chieftain
                        (From the 2007 Album UDDER CHAOS)

Words by Samwise Didier
Music by Samwise Didier; Chris Sigaty; Dave Berggren; Mike Morhaime; Alan 

Dabiri
Arranged by World of Warcraft
Transcribed by NejiHyuga900

Gtr I (E A D G B E) - 'Sig Nicious (Rhythm)'
Gtr II (E A D G B E) - 'Bergrisst (Lead)'
Gtr III (E A D G B E) - 'Bergrisst (Lead - Solo)'

 Intro
  Q=144
  E5
 4/4
  Gtr I
  PM|     PM       PM       PM      PM
  E E Q   E  E +E  E    Q   E E +E  E E E
|--------------------|--------------------|
|--------------------|--------------------|
|--------------------|--------------------|
|-----2------0-(0)---|--3-----2-(2)---0h2-|
|--------------------|--------------------|
|-0-0-----0--------0-|------0-------0-----|
|
| Gtr II
| PM|
| E E Q  +H            +W
|--------------------|--------------------|
|--------------------|--------------------|
|--------------------|--------------------|
|-2-2-2--(2)---------|-(2)----------------|
|-2-2-2--(2)---------|-(2)----------------|
|-0-0-0--(0)---------|-(0)----------------|


  G5
  PM|     PM       PM       PM      PM
  E E Q   E  E +E  E    Q   E E +E  E E E
|--------------------|---------------------|
|--------------------|---------------------|
|--------------------|---------------------|
|-----2------0-(0)---|--3-----2-(2)---0h2--|
|--------------------|---------------------|
|-3-3-----3--------3-|------3-------3------|
|
| PM|
| E E Q  +H            +W
|--------------------|---------------------|
|--------------------|---------------------|
|--------------------|---------------------|
|-5-5-5--(5)---------|-(5)-----------------|
|-5-5-5--(5)---------|-(5)-----------------|
|-3-3-3--(3)---------|-(3)-----------------|


  A5
  PM|     PM       PM       PM      PM
  E E Q   E  E +E  E    Q   E E +E  E E E
|--------------------|--------------------|
|--------------------|--------------------|
|--------------------|--------------------|
|-----2------0-(0)---|--3-----2-(2)---0h2-|
|-0-0-----0--------0-|------0-------0-----|
|--------------------|--------------------|
|
| PM|
| E E Q  +H            +W
|--------------------|--------------------|
|--------------------|--------------------|
|-2-2-2--(2)---------|-(2)----------------|
|-2-2-2--(2)---------|-(2)----------------|
|-0-0-0--(0)---------|-(0)----------------|
|--------------------|--------------------|


  E5
  PM|     PM       PM       PM      PM~
  E E Q   E  E +E  E    Q   E E +E  E Q
|--------------------|-------------------|
|--------------------|-------------------|
|--------------------|-------------------|
|-----2------0-(0)---|-------------------|
|--------------------|--3-----2-(2)------|
|-0-0-----0--------0-|------0-------0-3--|
|
| PM|
| E E Q  +H            +W
|--------------------|-------------------|
|--------------------|-------------------|
|--------------------|-------------------|
|-2-2-2--(2)---------|-(2)---------------|
|-2-2-2--(2)---------|-(2)---------------|
|-0-0-0--(0)---------|-(0)---------------|


  Q=151
                                      G5
  PM|   PM|   PM|     PM|   PM|       PM|   PM--|   PM|     PM|   PM|
  E E E E E E E E   E E E E E E E E   E E E S S E E E E   E E E E E E E E
|-----------------|-----------------|-------------------|------------------|
|-----------------|-----------------|-------------------|------------------|
|-----------------|-----------------|-------------------|------------------|
|-----2-----0-----|-3-----2-----0h2-|-----2-------0-----|-3-----2-----0h2--|
|-----------------|-----------------|-------------------|------------------|
|-0-0---0-0---0-0-|---0-0---0-0-----|-3-3---3-3-3---3-3-|---3-3---3-3------|
|
| PM|   PM|   PM|     PM|   PM|       PM|   PM--|   PM|     PM|   PM|
| E E E E E E E E   E E E E E E E E   E E E E   E E E E   E E E E E E E E
|-----------------|-----------------|-------------------|------------------|
|-----------------|-----------------|-------------------|------------------|
|-----------------|-----------------|-------------------|------------------|
|-2-2-2-2-2-2-2-2-|-2-2-2-2-2-2-2-2-|-5-5-5-5---5-5-5-5-|-5-5-5-5-5-5-5-5--|
|-2-2-2-2-2-2-2-2-|-2-2-2-2-2-2-2-2-|-5-5-5-5---5-5-5-5-|-5-5-5-5-5-5-5-5--|
|-0-0-0-0-0-0-0-0-|-0-0-0-0-0-0-0-0-|-3-3-3-3---3-3-3-3-|-3-3-3-3-3-3-3-3--|


  A5                                    E5
  PM|   PM--|   PM|     PM|   PM|       PM|   PM|   PM|     PM|   PM| ~
  E E E S S E E E E   E E E E E E E E   E E E E E E E E   E E E E E E Q
|-------------------|-----------------|-----------------|-------------------||
|-------------------|-----------------|-----------------|-------------------||
|-------------------|-----------------|-----------------|-------------------||
|-----2-------0-----|-3-----2-----0h2-|-----2-----0-----|-------------------||
|-0-0---0-0-0---0-0-|---0-0---0-0-----|-----------------|-3-----2-----------||
|-------------------|-----------------|-0-0---0-0---0-0-|---0-0---0-0-3-----||
|
| PM|   PM--|   PM|     PM|   PM|       PM--|
| E E E E   E E E E   E E E E E E E E   E E E E E E E E   E E E E E E E E
|-------------------|-----------------|-----------------|-------------------||
|-------------------|-----------------|-------------5-5-|-5-5-5-5-5-5-5-5\--||
|-2-2-2-2---2-2-2-2-|-2-2-2-2-2-2-2-2-|-------------4-4-|-4-4-4-4-4-4-4-4\--||
|-2-2-2-2---2-2-2-2-|-2-2-0-2-2-2-2-2-|-2-2-2-2-2-2-2-2-|-2-2-2-2-2-2-2-2\--||
|-0-0-0-0---0-0-0-0-|-0-0-0-0-0-0-0-0-|-2-2-2-----------|-------------------||
|-------------------|-----------------|-0-0-0-----------|-------------------||


   Verse I
    Q=160
    N.C.(E5)
    PM|   PM    PM|     PM|   PM|       PM|   PM    PM|
    E E E E E E E E   E E E E E E E E   E E E E E E E E
||------------------|-----------------|-----------------|
||o-----------------|-----------------|-----------------|
||------------------|-----------------|-----------------|
||------2-----0-----|-3-----2-----0h2-|-----2-----0-----|
||o-----------------|-----------------|-----------------|
||--0-0---0-0---0-0-|---0-0---0-0-----|-0-0---0-0---0-0-|
|
|   PM|   PM    PM|     PM|   PM|       PM|   PM    PM|
|   E E E E E E E E   E E E E E E E E   E E E E E E E E
||------------------|-----------------|-----------------|
||o-----------------|-----------------|-----------------|
||------------------|-----------------|-----------------|
||------2-----0-----|-3-----2-----0h2-|-----2-----0-----|
||o-----------------|-----------------|-----------------|
||--0-0---0-0---0-0-|---0-0---0-0-----|-0-0---0-0---0-0-|


 1.                   2.
    PM|   PM|  ~~~       PM|   PM|  ~~~
  E E E E E E  Q       E E E E E E  Q
|-------------------||--------------------|
|------------------o||--------------------|
|-------------------||--------------------|
|-3-----2-----------||--------------------|
|--------------5---o||-3-----2------------|
|---0-0---0-0-------||---0-0---0-0--3-----|
|
|   PM|   PM|  ~~~       PM|   PM|  ~~~
| E E E E E E  Q       E E E E E E  Q
|-------------------||--------------------|
|------------------o||--------------------|
|-------------------||--------------------|
|-3-----2-----------||--------------------|
|-------------[5]--o||-3-----2------------|
|---0-0---0-0-------||---0-0---0-0-[3]----|


                                                         1.
    PM|   PM|   PM|     PM|   PM|       PM|   PM|   PM|     PM|   PM| ~
    E E E E E E E E   E E E E E E E E   E E E E E E E E   E E E E E E Q
||------------------|-----------------|-----------------|------------------||
||o-----------------|-----------------|-----------------|-----------------o||
||------------------|-----------------|-----------------|------------------||
||------2-----0-----|-3-----2-----0h2-|-----2-----0-----|-3-----2----------||
||o-----------------|-----------------|-----------------|-------------5---o||
||--0-0---0-0---0-0-|---0-0---0-0-----|-0-0---0-0---0-0-|---0-0---0-0------||
|
|   PM|   PM|   PM|     PM|   PM|       PM|   PM    PM|     PM|   PM| ~
|   E E E E E E E E   E E E E E E E E   E E E E E E E E   E E E E E E Q
||------------------|-----------------|-----------------|------------------||
||o-----------------|-----------------|-----------------|-----------------o||
||------4-----2-----|-5-----4-----2h4-|-----4-----2-----|-5-----4-----2----||
||------------------|-----------------|-----------------|------------------||
||o-2-2---2-2---2-2-|---2-2---2-2-----|-2-2---2-2---2-2-|---2-2---2-2-----o||
||------------------|-----------------|-----------------|------------------||


  2.                Q=162
    PM|   PM|   PM
  E E E E E E E E   W          +W           +W
|-----------------|----------|------------|-----------------||
|-----------------|----------|------------|-----------------||
|-----------------|----------|------------|-----------------||
|-----------------|----------|------------|-----------------||
|-3-----2---------|----------|------------|-----------------||
|---0-0---0-0-3-0-|-3--------|-(3)--------|-(3)-------------||
|
|   PM|   PM|   PM
| E E E E E E E E   W          +W           +H..       +E
|-----------------|----------|------------|-----------------||
|-----------------|----------|------------|-----------------||
|-----------------|----------|------------|-----------------||
|-5-----4---------|----------|------------|-----------------||
|---2-2---2-2-5-2-|-5--------|-(5)--------|-(5)--------(5)\-||
|-----------------|----------|------------|-----------------||


   Chorus I
    Q=210                                     1.
    E5   G5     N.C.   E5             G5 N.C.
                                                       ~~~
    H    H      Q  E E H      +Q   Q  Q  E E   Q  E E  H
||------------|-------------|----------------|---------------|
||o-----------|-------------|----------------|---------------|
||------------|-------------|----------------|---------------|
||--2----5----|--------2----|-(2)--2--5------|---------------|
||o-2----5----|-0------2----|-(2)--2--5------|-0-------3-----|
||--0----3----|----3p1-0----|-(0)--0--3--1h3-|----3p1--------|
|
|                                                      ~~~
|   H    H      Q  E E H      +Q   Q  Q  E E   Q  E E  H
||------------|-------------|----------------|---------------|
||o-----------|-------------|----------------|---------------|
||------------|-------------|----------------|---------------|
||--2----5----|--------2----|-(2)--2--5------|---------------|
||o-2----5----|-0------2----|-(2)--2--5------|-0------[3]----|
||--0----3----|----3p1-0----|-(0)--0--3--1h3-|----3p1--------|


  E5   G5     N.C.   E5             G5 F5
  H    H      Q  E E H      +Q   Q  h        E E Q  E E Q
|-----------|-------------|----------------|----------------||
|-----------|-------------|----------------|---------------o||
|-----------|-------------|----------------|----------------||
|-2----5----|--------2----|-(2)--2--5------|-3-3----3-3-----||
|-2----5----|-0------2----|-(2)--2--5------|-3-3----3-3----o||
|-0----3----|----3p1-0----|-(0)--0--3------|-1-1----1-1-----||
|
|                                      PM|
| H    H      Q  E E H      +Q   Q  Q  E E   E E Q  E E Q
|-----------|-------------|----------------|----------------||
|-----------|-------------|----------------|---------------o||
|-----------|-------------|----------------|----------------||
|-2----5----|--------2----|-(2)--2--5------|-3-3----3-3-----||
|-2----5----|-0------2----|-(2)--2--5------|-3-3----3-3----o||
|-0----3----|----3p1-0----|-(0)--0--3--1-1-|-1-1----1-1-----||


  2.
  N.C.            E5   G5     N.C.   E5             G5     F5
          ~~~
  Q  E E  H       H    H      Q  E E H      +Q   Q  h      E E Q  E E Q
|---------------|-----------|-------------|--------------|---------------||
|---------------|-----------|-------------|--------------|---------------||
|---------------|-----------|-------------|--------------|---------------||
|---------------|-2----5----|--------2----|-(2)--2--5----|-3-3----3-3----||
|-0-------3-----|-2----5----|-0------2----|-(2)--2--5----|-3-3----3-3----||
|----3p1--------|-0----3----|----3p1-0----|-(0)--0--3----|-1-1----1-1----||
|
|         ~~~
| Q  E E  H       H    H      Q  E E H      +Q   Q  h      E E Q  E E Q
|---------------|-----------|-------------|--------------|---------------||
|---------------|-----------|-------------|--------------|---------------||
|---------------|-----------|-------------|--------------|---------------||
|---------------|-2----5----|--------2----|-(2)--2--5----|-3-3----3-3----||
|-0------[3]----|-2----5----|-0------2----|-(2)--2--5----|-3-3----3-3----||
|----3p1--------|-0----3----|----3p1-0----|-(0)--0--3----|-1-1----1-1----||


 Pre-Verse
  Q=166
  E5
  PM|   PM|     PM|       PM|   PM|
  E E E E  E  E E E    E  E E E E E E E
|-------------------|-------------------|
|-------------------|-------------------|
|-------------------|-------------------|
|-----2-------0-----|--3------2-----0h2-|
|-------------------|-------------------|
|-0-0---0--0----0-0-|-----0-0---0-0-----|
|
| PM|
| E E Q   +H          +W
|-------------------|-------------------|
|-------------------|-------------------|
|-------------------|-------------------|
|-2-2-2---(2)-------|-(2)---------------|
|-2-2-2---(2)-------|-(2)---------------|
|-0-0-0---(0)-------|-(0)---------------|


  G5
  PM|   PM|     PM|       PM|   PM|
  E E E E  E  E E E    E  E E E E E E E
|-------------------|-------------------|
|-------------------|-------------------|
|-------------------|-------------------|
|-----2-------0-----|--3------2-----0h2-|
|-------------------|-------------------|
|-3-3---3--3----3-3-|-----3-3---3-3-----|
|
| PM|
| E E Q   +H          +W
|-------------------|-------------------|
|-------------------|-------------------|
|-------------------|-------------------|
|-5-5-5---(5)-------|-(5)---------------|
|-5-5-5---(5)-------|-(5)---------------|
|-3-3-3---(3)-------|-(3)---------------|


  A5                                      E5
  PM|   PM|     PM|       PM|   PM|       PM|   PM|   PM|     PM|   PM| ~
  E E E E  E  E E E    E  E E E E E E E   E E E E E E E E   E E E E E E Q
|-------------------|-------------------|-----------------|------------------||
|-------------------|-------------------|-----------------|------------------||
|-------------------|-------------------|-----------------|------------------||
|-----2-------0-----|--3------2-----0h2-|-----2-----0-----|------------------||
|-0-0---0--0----0-0-|-----0-0---0-0-----|-----------------|-3-----2----------||
|-------------------|-------------------|-0-0---0-0---0-0-|---0-0---0-0-3----||
|
| PM|                                     PM|
| E E Q   +H          +W                  E E E E E E E E   E E E E E E E E
|-------------------|-------------------|-----------------|------------------||
|-------------------|-------------------|-----------5-5-5-|-5-5-5-5-5-5-5-5\-||
|-2-2-2---(2)-------|-(2)---------------|-----------4-4-4-|-4-4-4-4-4-4-4-4\-||
|-2-2-2---(2)-------|-(2)---------------|-2-2-2-2-2-2-2-2-|-2-2-2-2-2-2-2-2\-||
|-0-0-0---(0)-------|-(0)---------------|-2-2-------------|------------------||
|-------------------|-------------------|-0-0-------------|------------------||


   Verse II
    N.C.(E5)
    PM|   PM|   PM|     PM|   PM|       PM|   PM|   PM|
    E E E E E E E E   E E E E E E E E   E E E E E E E E
||------------------|-----------------|-----------------|
||o-----------------|-----------------|-----------------|
||------------------|-----------------|-----------------|
||------2-----0-----|-3-----2-----0h2-|-----2-----0-----|
||o-----------------|-----------------|-----------------|
||--0-0---0-0---0-0-|---0-0---0-0-----|-0-0---0-0---0-0-|
|
|   PM|   PM|   PM|     PM|   PM|       PM|   PM|   PM|
|   E E E E E E E E   E E E E E E E E   E E E E E E E E
||------------------|-----------------|-----------------|
||o-----------------|-----------------|-----------------|
||------------------|-----------------|-----------------|
||------2-----0-----|-3-----2-----0h2-|-----2-----0-----|
||o-----------------|-----------------|-----------------|
||--0-0---0-0---0-0-|---0-0---0-0-----|-0-0---0-0---0-0-|


 1.                   2.
    PM|   PM|  ~~~       PM|   PM|  ~~~
  E E E E E E  Q       E E E E E E  Q
|-------------------||--------------------|
|------------------o||--------------------|
|-------------------||--------------------|
|-3-----2-----------||--------------------|
|--------------5---o||-3-----2------------|
|---0-0---0-0-------||---0-0---0-0--3-----|
|
|   PM|   PM|  ~~~       PM|   PM|  ~~~
| E E E E E E  Q       E E E E E E  Q
|-------------------||--------------------|
|------------------o||--------------------|
|-------------------||--------------------|
|-3-----2-----------||--------------------|
|-------------[5]--o||-3-----2------------|
|---0-0---0-0-------||---0-0---0-0-[3]----|


  PM|   PM|   PM|     PM|   PM|       PM|   PM|   PM|     PM|   PM|  ~~~
  E E E E E E E E   E E E E E E E E   E E E E E E E E   E E E E E E  Q
|-----------------|-----------------|-----------------|------------------|
|-----------------|-----------------|-----------------|------------------|
|-----------------|-----------------|-----------------|------------------|
|-----2-----0-----|-3-----2-----0h2-|-----2-----0-----|-3-----2----------|
|-----------------|-----------------|-----------------|--------------5---|
|-0-0---0-0---0-0-|---0-0---0-0-----|-0-0---0-0---0-0-|---0-0---0-0------|
|
| PM|   PM|   PM|       PM  PM|       PM|   PM    PM|     PM|   PM|  ~~~
| E E E E E E E E   Q   E E E E E E   E E E E E E E E   E E E E E E  Q
|-----------------|-----------------|-----------------|------------------|
|-----------------|-----------------|-----------------|------------------|
|-----4-----2-----|-5-----4-----2h4-|-----4-----2-----|-5-----4-----[5]--|
|-----------------|-----------------|-----------------|------------------|
|-2-2---2-2---2-2-|-----2---2-2-----|-2-2---2-2---2-2-|---2-2---2-2------|
|-----------------|-----------------|-----------------|------------------|


  PM|   PM|   PM|     PM|   PM|       PM|   PM|   PM|     PM|   PM|   PM
  E E E E E E E E   E E E E E E E E   E E E E E E E E   E E E E E E E E
|-----------------|-----------------|-----------------|-----------------|
|-----------------|-----------------|-----------------|-----------------|
|-----------------|-----------------|-----------------|-----------------|
|-----2-----0-----|-3-----2-----0h2-|-----2-----0-----|-----------------|
|-----------------|-----------------|-----------------|-3-----2---------|
|-0-0---0-0---0-0-|---0-0---0-0-----|-0-0---0-0---0-0-|---0-0---0-0-3-0-|
|
| PM|   PM|   PM|     PM|   PM|       PM|   PM    PM|     PM|   PM|   PM
| E E E E E E E E   E E E E E E E E   E E E E E E E E   E E E E E E E E
|-----------------|-----------------|-----------------|-----------------|
|-----------------|-----------------|-----------------|-----------------|
|-----4-----2-----|-5-----4-----2h4-|-----4-----2-----|-----------------|
|-----------------|-----------------|-----------------|-5-----4---------|
|-2-2---2-2---2-2-|---2-2---2-2-----|-2-2---2-2---2-2-|---2-2---2-2-5-2-|
|-----------------|-----------------|-----------------|-----------------|


  Q=162
                            6/4
  W          +W              +W.
|----------|---------------|---------------------------|
|----------|---------------|---------------------------|
|----------|---------------|---------------------------|
|----------|---------------|---------------------------|
|----------|---------------|---------------------------|
|-3--------|-(3)-----------|-(3)-----------------------|
|
| W          +H.      Q      +H     +H     +Q   +Q
|----------|---------------|---------------------------|
|----------|---------------|---------------------------|
|----------|---------------|---------------------------|
|----------|---------------|---------------------------|
|-5--------|-(5)------5b7--|-(5)----(5)----(5)--(5)\---|
|----------|---------------|---------------------------|


   Chorus II
    Q=209
    E5   G5     N.C.   E5
   4/4
    H    H      Q  E E H
||------------|-------------|
||o-----------|-------------|
||------------|-------------|
||--2----5----|--------2----|
||o-2----5----|-0------2----|
||--0----3----|----3p1-0----|
|
|   H    H      Q  E E H
||------------|-------------|
||o-----------|-------------|
||------------|-------------|
||--2----5----|--------2----|
||o-2----5----|-0------2----|
||--0----3----|----3p1-0----|


                                              1.
          G5 N.C.                  E5   G5     N.C.   E5             G5 F5
                           ~~~
  +Q   Q  Q  E E   Q  E E  H       H    H      Q  E E H      +Q   Q  h
|----------------|---------------|-----------|-------------|----------------|
|----------------|---------------|-----------|-------------|----------------|
|----------------|---------------|-----------|-------------|----------------|
|-(2)--2--5------|---------------|-2----5----|--------2----|-(2)--2--5------|
|-(2)--2--5------|-0-------3-----|-2----5----|-0------2----|-(2)--2--5------|
|-(0)--0--3--1h3-|----3p1--------|-0----3----|----3p1-0----|-(0)--0--3------|
|
|                          ~~~                                          PM|
| +Q   Q  Q  E E   Q  E E  H       H    H      Q  E E H      +Q   Q  Q  E E
|----------------|---------------|-----------|-------------|----------------|
|----------------|---------------|-----------|-------------|----------------|
|----------------|---------------|-----------|-------------|----------------|
|-(2)--2--5------|---------------|-2----5----|--------2----|-(2)--2--5------|
|-(2)--2--5------|-0------[3]----|-2----5----|-0------2----|-(2)--2--5------|
|-(0)--0--3--1h3-|----3p1--------|-0----3----|----3p1-0----|-(0)--0--3--1-1-|


                   2.
                    N.C.   E5             G5       F5
  E E Q  E E Q      Q  E E H      +Q   Q  h        E E Q  E E Q   4x
|----------------||-------------|--------------||-----------------||
|---------------o||-------------|--------------||o---------------o||
|----------------||-------------|--------------||-----------------||
|-3-3----3-3-----||--------2----|-(2)--2--5----||--3-3----3-3-----||
|-3-3----3-3----o||-0------2----|-(2)--2--5----||o-3-3----3-3----o||
|-1-1----1-1-----||----3p1-0----|-(0)--0--3----||--1-1----1-1-----||
|
| E E Q  E E Q      Q  E E H      +Q   Q  h        E E Q  E E Q   4x
|----------------||-------------|--------------||-----------------||
|---------------o||-------------|--------------||o---------------o||
|----------------||-------------|--------------||-----------------||
|-3-3----3-3-----||--------2----|-(2)--2--5----||--3-3----3-3-----||
|-3-3----3-3----o||-0------2----|-(2)--2--5----||o-3-3----3-3----o||
|-1-1----1-1-----||----3p1-0----|-(0)--0--3----||--1-1----1-1-----||


 Guitar Solo
  Q=221
  E5    D5 E5                                         F5
   H    Q  Q    +H     +H           H           Q      Q     +H      H
|-------------|------------------|------------------------|------------------|
|-------------|------------------|------------------------|------------------|
|-------7--9--|-(9)----(9)\------|--------------9-----10--|-(10)----10\------|
|--2----7--9--|-(9)----(9)\------|--2-----------9-----10--|-(10)----10\------|
|--2----5--7--|-(7)----(7)\------|--2-----------7------8--|--(8)-----8\------|
|--0----------|------------------|--0---------------------|------------------|
|
| Gtr III
|                ~~~                                   ~~~~~~~~~~
|  H    H       +H      Q     Q     E  +E   Q   Q   a  Q     +H      Q.   E
|-------------|------------------|------------------------|------------------|
|-------------|------------------|------------------------|------------------|
|-/9----9-----|-(9)-----9h===10--|-10-(10)s12--12--12s14--|-(14)----14-------|
|-------------|------------------|------------------------|------------------|
|-------------|------------------|------------------------|------------------|
|-------------|------------------|------------------------|------------------|


  E5          D5   E5
   H           Q    Q      +H           H
|------------------------|------------------------|
|------------------------|------------------------|
|--------------7----9----|-(9)----------9---------|
|--2-----------7----9----|-(9)----------9---------|
|--2-----------5----7----|-(7)----------7---------|
|--0---------------------|------------------------|
|
|  E  E  E  E  E E  E  E    E   E  E  E E  E  E E
|------------------------|------------------------|
|------------------------|------------------------|
|-14p12-14-12-10-9----10-|--9---------------------|
|------------------12----|-----12-12-10-7-12-10-7-|
|------------------------|------------------------|
|------------------------|------------------------|


          D5        C5                          N.C.
      PM|     PM|                          PM-|
  Q   E E Q   E E    Q                     E  E E E Q
|-----------------|-------------------------------------|
|-----------------|-------------------------------------|
|-9---9-9-7---7-7-|--5---------------------5--5---------|
|-9---9-9-7---7-7-|--5---------------------5--5---------|
|-7---7-7-5---5-5-|--3---------------------3--3-3p2-----|
|-----------------|---------------------------------3---|
|
|                                                   PM|
| E E E E E E Q     +S     +S  +S     +S  +Q    E E E E
|-----------------|-------------------------------------|
|-----------------|-------------------------------------|
|-----------------|-------------------------------------|
|-5-3-2h3p2h3-2---|-(2)b3==(2)r(2)b3==(2)r(2)---7s2-2-2-|
|-----------------|-------------------------------------|
|-----------------|-------------------------------------|


  E5     D5 E5                                F5
                                       PM|
  H      Q  Q     +H       H        Q  E E Q   Q     +H        H
|---------------|-----------------|---------------|--------------------|
|---------------|-----------------|---------------|--------------------|
|--------7--9---|-(9)------9------|--------9--10--|-(10)------10-------|
|-2------7--9---|-(9)------9------|-2------9--10--|-(10)------10-------|
|-2------5--7---|-(7)------7------|-2------7---8--|--(8)-------8-------|
|-0-------------|-----------------|-0--0-0--------|--------------------|
|
| Gtr III
|    PM|    PM|        PM|    PM|              ~~~~~~~~~~
| Q  E E Q  E E    Q   E E Q  E E   Q  E E Q   Q     +Q   E E  E E E E
|---------------|-----------------|--------5---4--|--(4)--4-4--4-4-4-4-|
|---------------|----------3------|-5--x-x--------|--------------------|
|--------4------|--5--------------|---------------|--------------------|
|-2--2-2----2-2-|------2-2----2-2-|---------------|--------------------|
|---------------|-----------------|---------------|--------------------|
|---------------|-----------------|---------------|--------------------|


  E5      D5  E5
  H       Q   Q     +H               H
|-----------------|--------------------------------|
|-----------------|--------------------------------|
|---------7---9---|-(9)--------------9-------------|
|-2-------7---9---|-(9)--------------9-------------|
|-2-------5---7---|-(7)--------------7-------------|
|-0---------------|--------------------------------|
|
|                    |--3---|  |3-|        |--3--|
| E E E E E E E E    E   E  E  Q  E  E  E  E  E  E
|-4-4-5-5-7-7-8-8-|-10--10-10-12-12-13-13-13p12p10-|
|-----------------|--------------------------------|
|-----------------|--------------------------------|
|-----------------|--------------------------------|
|-----------------|--------------------------------|
|-----------------|--------------------------------|


                      D5                    C5                  N.C.
            PM---|              PM---|                PM---|
   Q        E    E     Q        E    E       Q        E    E     E    E     Q
|-----------------------------------------|------------------------------------------||
|-----------------------------------------|------------------------------------------||
|--9--------9----9-----7--------7----7----|--5--------5----5-------------------------||
|--9--------9----9-----7--------7----7----|--5--------5----5-------------------------||
|--7--------7----7-----5--------5----5----|--3--------3----3-----3p===2--------------||
|-----------------------------------------|---------------------------------3--------||
|
|  |--3--|  |---3---|  |--3--|  |---3---|    |--3--|  |---3---|  |---3---|  |--3--|
|  E  E  E  E  E    E  E  E  E  E  E    E    E  E  E  E  E    E  E  E    E  E  E  E
|-13p12p10-13p12p==10-13p12p10-13p12p==10-|-17p15p13-17p15p==13-17p15p==13-17p15p13--||
|-----------------------------------------|------------------------------------------||
|-----------------------------------------|------------------------------------------||
|-----------------------------------------|------------------------------------------||
|-----------------------------------------|------------------------------------------||
|-----------------------------------------|------------------------------------------||


 Verse III
  E5       D5     E5
   H        Q      Q         +W
|-------------------------|--------------------|
|-------------------------|--------------------|
|-----------7------9------|--(9)---------------|
|--2--------7------9------|--(9)---------------|
|--2--------5------7------|--(7)---------------|
|--0----------------------|--------------------|
|
|  H        Q      Q         +H       H
|-17b19----17b19--17b19===|=(17)r----17b19=====|
|-------------------------|--------------------|
|-------------------------|--------------------|
|-------------------------|--------------------|
|-------------------------|--------------------|
|-------------------------|--------------------|


                    F5
    H           Q    Q     +W
|-----------------------|-----------------------------------------|
|-----------------------|-----------------------------------------|
|---------------9---10--|-(10)------------------------------------|
|---2-----------9---10--|-(10)------------------------------------|
|---2-----------7----8--|--(8)------------------------------------|
|---0-------------------|-----------------------------------------|
|
|  +Q    +Q    +Q    Q     +S       +S   +S       +S   +E  E H
|-(17)--(17)r=(17)--17--|-(17)b19==(17)r(17)b19==(17)r(17)--------|
|-----------------------|-----------------------------------------|
|-----------------------|----------------------------------9s2----|
|-----------------------|-----------------------------------------|
|-----------------------|-----------------------------------------|
|-----------------------|-----------------------------------------|


  E5     D5 E5                        D5       C5     N.C.
                                  PM|    PM|      PM|
  H      Q  Q    +W            Q  E E Q  E E   Q  E E E E Q
|--------------|-------------|---------------|-----------------|
|--------------|-------------|---------------|-----------------|
|--------7--9--|-(9)---------|-9--9-9-7--7-7-|-5--5-5----------|
|-2------7--9--|-(9)---------|-9--9-9-7--7-7-|-5--5-5----------|
|-2------5--7--|-(7)---------|-7--7-7-5--5-5-|-3--3-3-3p2------|
|-0------------|-------------|---------------|------------3----|
|
| Gtr II
|    PM|                          PM|    PM|      PM|
| Q  E E Q  Q    +H     H      Q  E E Q  E E   Q  E E E E Q
|--------------|-------------|---------------|-----------------|
|--------------|-------------|---------------|-----------------|
|--------7--9--|-(9)----9----|-9--9-9-7--7-7-|-5--5-5----------|
|-2--2-2-7--9--|-(9)----9----|-9--9-9-7--7-7-|-5--5-5----------|
|-2--2-2-5--7--|-(7)----7----|-7--7-7-5--5-5-|-3--3-3-3p2------|
|-0--0-0-------|-------------|---------------|------------3----|


  E5     D5 E5                              F5
  H      Q  Q    +W               H      Q   Q
|--------------|----------------|---------------|
|--------------|----------------|---------------|
|--------7--9--|-(9)------------|--------9--10--|
|-2------7--9--|-(9)------------|-2------9--10--|
|-2------5--7--|-(7)------------|-2------7---8--|
|-0------------|----------------|-0-------------|
|
|    PM|                  ~~~        PM|
| Q  E E Q  Q    +Q   Q   H       Q  E E Q   Q
|--------------|----------------|---------------|
|--------------|----------------|---------------|
|--------7--9--|-(9)--7--[9]----|--------9--10--|
|-2--2-2-7--9--|-(9)--7---------|-2--2-2-9--10--|
|-2--2-2-5--7--|-(7)------------|-2--2-2-7---8--|
|-0--0-0-------|----------------|-0--0-0--------|


                     E5     D5 E5
   +W                H      Q  Q
|------------------|--------------|
|------------------|--------------|
|-(10)-------------|--------7--9--|
|-(10)-------------|-2------7--9--|
|--(8)-------------|-2------5--7--|
|------------------|-0------------|
|
|            ~~~~       PM|
|  +Q   Q    H       Q  E E Q  Q
|------------------|--------------|
|------------------|--------------|
|-(10)--9--[10]----|--------7--9--|
|-(10)--9----------|-2--2-2-7--9--|
|--(8)-------------|-2--2-2-5--7--|
|------------------|-0--0-0-------|


                                                   Q=212
                          D5       C5     N.C.     F5
                      PM|    PM|      PM|
  +W               Q  E E Q  E E   Q  E E E E Q    W            +W      6x
|----------------|---------------|---------------|----------||----------||
|----------------|---------------|---------------|----------||o--------o||
|-(9)------------|-9--9-9-7--7-7-|-5--5-5--------|----------||----------||
|-(9)------------|-9--9-9-7--7-7-|-5--5-5--------|-3--------||--(3)-----||
|-(7)------------|-7--7-7-5--5-5-|-3--3-3-3p2----|-3--------||o-(3)----o||
|----------------|---------------|------------3--|-1--------||--(1)-----||
|
|          ~~~        PM|    PM|      PM|
| +Q   Q   H       Q  E E Q  E E   Q  E E E E Q    W            +W      6x
|----------------|---------------|---------------|----------||----------||
|----------------|---------------|---------------|----------||o--------o||
|-(9)--7--[9]----|-9--9-9-7--7-7-|-5--5-5--------|----------||----------||
|-(9)--7---------|-9--9-9-7--7-7-|-5--5-5--------|-3--------||--(3)-----||
|-(7)------------|-7--7-7-5--5-5-|-3--3-3-3p2----|-3--------||o-(3)----o||
|----------------|-0-------------|------------3--|-1--------||--(1)-----||


   Chorus III
    Q=212
    E5   G5     N.C.   E5             G5 N.C.                  E5   G5
                                                       ~~~
    H    H      Q  E E H      +Q   Q  Q  E E   Q  E E  H       H    H
||------------|-------------|----------------|---------------|-----------|
||o-----------|-------------|----------------|---------------|-----------|
||------------|-------------|----------------|---------------|-----------|
||--2----5----|--------2----|-(2)--2--5------|---------------|-2----5----|
||o-2----5----|-0------2----|-(2)--2--5------|-0-------3-----|-2----5----|
||--0----3----|----3p1-0----|-(0)--0--3--1h3-|----3p1--------|-0----3----|
|
|                                                      ~~~
|   H    H      Q  E E H      +Q   Q  Q  E E   Q  E E  H       H    H
||------------|-------------|----------------|---------------|-----------|
||o-----------|-------------|----------------|---------------|-----------|
||------------|-------------|----------------|---------------|-----------|
||--2----5----|--------2----|-(2)--2--5------|---------------|-2----5----|
||o-2----5----|-0------2----|-(2)--2--5------|-0------[3]----|-2----5----|
||--0----3----|----3p1-0----|-(0)--0--3--1h3-|----3p1--------|-0----3----|


  1.                                              2.
  N.C.   E5             G5 F5
  Q  E E H      +Q   Q  h        E E Q  E E Q      Q  E E H      +Q   Q  h
|-------------|----------------|----------------||-------------|--------------|
|-------------|----------------|---------------o||-------------|--------------|
|-------------|----------------|----------------||-------------|--------------|
|--------2----|-(2)--2--5------|-3-3----3-3-----||--------2----|-(2)--2--5----|
|-0------2----|-(2)--2--5------|-3-3----3-3----o||-0------2----|-(2)--2--5----|
|----3p1-0----|-(0)--0--3------|-1-1----1-1-----||----3p1-0----|-(0)--0--3----|
|
| Q  E E H      +Q   Q  Q  E E   E E Q  E E Q      Q  E E H      +Q   Q  h
|-------------|----------------|----------------||-------------|--------------|
|-------------|----------------|---------------o||-------------|--------------|
|-------------|----------------|----------------||-------------|--------------|
|--------2----|-(2)--2--5------|-3-3----3-3-----||--------2----|-(2)--2--5----|
|-0------2----|-(2)--2--5------|-3-3----3-3----o||-0------2----|-(2)--2--5----|
|----3p1-0----|-(0)--0--3--1-1-|-1-1----1-1-----||----3p1-0----|-(0)--0--3----|


                                  Outro
                                   Q=207
  F5                                         E5
  E E Q  E E Q    E E Q  E E Q     W             W            +W      7x
|---------------|---------------||-------------|----------||----------||
|---------------|---------------||-------------|----------||o--------o||
|---------------|---------------||-------------|----------||----------||
|-3-3----3-3----|-3-3----3-3----||-------------|-2--------||--(2)-----||
|-3-3----3-3----|-3-3----3-3----||-------------|-2--------||o-(2)----o||
|-1-1----1-1----|-1-1----1-1----||-------------|-0--------||--(0)-----||
|
| E E Q  E E Q    E E Q  E E Q     H..       E   W            +W      7x
|---------------|---------------||-------------|----------||----------||
|---------------|---------------||-------------|----------||o--------o||
|---------------|---------------||-------------|----------||----------||
|-3-3----3-3----|-3-3----3-3----||-----------2-|-2--------||--(2)-----||
|-3-3----3-3----|-3-3----3-3----||-----------2-|-2--------||o-(2)----o||
|-1-1----1-1----|-1-1----1-1----||-----------0-|-0--------||--(0)-----||


Duration Legend
---------------
W - whole; H - half; Q - quarter; E - 8th; S - 16th; T - 32nd; X - 64th; a - acciaccatura
+ - note tied to previous; . - note dotted; .. - note double dotted
Uncapitalized letters represent notes that are staccato (1/2 duration)
Irregular groupings are notated above the duration line
Duration letters will always appear directly above the note/fret number it represents the
duration for.  Duration letters with no fret number below them represent rests.  Multi-
bar rests are notated in the form Wxn, where n is the number of bars to rest for.  Low
melody durations appear below the staff

Tablature Legend
----------------
 h   - hammer-on
 p   - pull-off
 b   - bend
 pb  - pre-bend
 r   - bend release (if no number after the r, then release immediately)
 /\  - slide into or out of (from/to "nowhere")
 s   - legato slide
 S   - shift slide
  - natural harmonic
[n]  - artificial harmonic
n(n) - tapped harmonic
 ~   - vibrato
 tr  - trill
 T   - tap
 TP  - trem. picking
 PM  - palm muting
\n/  - tremolo bar dip; n = amount to dip
 \n  - tremolo bar down
 n/  - tremolo bar up
/n\  - tremolo bar inverted dip
 =   - hold bend; also acts as connecting device for hammers/pulls
 <>  - volume swell (louder/softer)
 x   - on rhythm slash represents muted slash
 o   - on rhythm slash represents single note slash

Misc Legend
-----------
 |  - bar
||  - double bar
||o - repeat start
o|| - repeat end
*|  - double bar (ending)
 :  - bar (freetime)
 $  - Segno
 &  - Coda
Tempo markers -  = BPM(8/16=s8/s16), where s8 = swing 8ths, s16 = swing 16ths


***************************************************************************************
* Generated using Power Tab Editor by Brad Larsen - http://powertab.guitarnetwork.org *
***************************************************************************************
Tap to rate this tab
# A B C D E F G H I J K L M N O P Q R S T U V W X Y Z