Song name
# A B C D E F G H I J K L M N O P Q R S T U V W X Y Z

Levellers - Last Man Alive tab

  LAST MAN ALIVE- tabbed by ween

Intro

 e|---------------------------------------------------------------|
 b|---------------------------------------------------------------|
 g|---------------------------------------------------------------|
 d|--5-5-5-5---------7-7-7-7-7-7-7-7------------------------------| x4
 a|--3-3-3-3-5-5-5-5-5-5-5-5-5-5-5-5------------------------------|
 e|----------3-3-3-3----------------------------------------------|


  verse bass only


  tag

 a|-7-7-7-7-3-3-3-3-5-5-5-5-----------------------------------------------|
 e|-5-5-5-5-1-1-1-1-3-3-3-3-----------------------------------------------|


  chorus

 d|-5-5-5-5-5-5-------------7-7-7-7-7-7----------------------|
 a|-3-3-3-3-3-3-5-5-5-5-5-5-5-5-5-5-5-5-3-3-3-3-3-3----------|   x2
 e|-------------3-3-3-3-3-3-------------1-1-1-1-1-1----------|

 intro

 verse

 tag x2

 chorus

 intro

 interlude

 a|-3-3-3-3-3-3-3-3-5-5-5-5-5-5-5-5-7-7-7-7-7-7-7-7-------|
 e|-1-1-1-1-1-1-1-1-3-3-3-3-3-3-3-3-5-5-5-5-5-5-5-5-------|

 chorus

 intro

 chorus till end


 any complaints or correction about this tab e-mail swampy922@hotmail.com

 please rate
Tap to rate this tab
# A B C D E F G H I J K L M N O P Q R S T U V W X Y Z