Song name
# A B C D E F G H I J K L M N O P Q R S T U V W X Y Z

Levellers - Liberty Song tab

Song - Liberty Song
Artist - Levellers


Hi there this is just the intro but i'll do the rest when i get the time, listen to the recording taken 
the album "levelling the land" to work out the correct timing.

------------------3-3--------------------------------|
------------------3-3--------------------------------|
------------------4-4--------------------------------|
---7---7---7-7-5--5-5---7---7-----------------7---7--|
---7---7---7-7-5--------7---7-----------------7---7--|
-5-5-5-5-5-5-5-3------5-5-5-5-5-5-7-8-7-5-3-5-5-5-5--|


0r


------------------3-3--------------------------------|
---2---2---2-2----3-----2---2-----------------2---2--|
---2---2---2-2----0-0---2---2-----------------2---2--|
---2---2---2-2----0-0---2---2-----------------2---2--|
-0-0-0-0-0-0-0-x------0-0-0-0-0-0-2-3-2-0---0-0-0-0--|
---------------3--------------------------3----------|

Play this how you prefer both sound as good as each other!

tabbed by - marc smith
marc_wolves@yahoo.com
Tap to rate this tab
 
# A B C D E F G H I J K L M N O P Q R S T U V W X Y Z