Song name
# A B C D E F G H I J K L M N O P Q R S T U V W X Y Z

Levi Werstler - Dura Matter tab

emil's part:

intro:
i'm pretty sure about the notes, but you should learn the timing yourself.
|-------------------------------------|-------------------------------------|
|-------------------------------------|-------------------------------------|
|-------------------------------------|-------------------------------------|
|-------------------------------------|-------------------------------------|
|-------------------------------------|-------------------------------------|
|-0-0-12-15-0-12-15-0-15p12p0-0-15-12-|-0-0-11-14-0-11-14-0-14p11p0-0-14-11-|

head:
|-3p2h3-4p3h4-5p4h5-6p5h6-7p6h7-|-------------5h7h9p7p5-------------|
|-------------------------------|-------5h7h9-----------9p7p5-------|
|-------------------------------|-5h7h9-----------------------9p7p5-|
|-------------------------------|-----------------------------------|
|-------------------------------|-----------------------------------|
|-------------------------------|-----------------------------------|

|-7p6h7-6p5h6-5p4h5-4p3h4-3p2h3-|-------------5h7h9p7p5-------------|
|-------------------------------|-------5h7h9-----------9p7p5-------|
|-------------------------------|-5h7h9-----------------------9p7p5-|
|-------------------------------|-----------------------------------|
|-------------------------------|-----------------------------------|
|-------------------------------|-----------------------------------|

agh! this song is hard to tab.
Tap to rate this tab
 
# A B C D E F G H I J K L M N O P Q R S T U V W X Y Z