Guitaretab - guitar tabs
Song name
# A B C D E F G H I J K L M N O P Q R S T U V W X Y Z

Leviathan - Fucking Your Ghost In Chains Of Ice tab

#------------------------------------PLEASE  NOTE----------------------------------------------#
#This file is the author's own work and represents their interpretation of the #
#song. You may only use this file for private study, scholarship, or research#
#----------------------------------------------------------------------------------------------#

Band   Leviathan
Album: The Tenth Sub Level of Suicide
Song:  Fucking Your Ghost in Chains of Ice

Transcribed By: Elathen
Email:         ningalia87@yahoo.com

Copyright (c)  Noise Records
Version 1.0 - 22/12/2007

Tuning E A D G B E


. - palm mute / - slide up to
 - slide down to ~ - vibrato
h - hammer on p - pull off
, - slight palm mute () - ghost note, sustained note
" " tremolo note <> - Trill

Suffixes for bend
f - full bend h - half bend
ph - pinched harmonic q - quarter bend
t - tap bend * - see comment
^ - Hold bend r - release bend
x  Staccato ~ - vibrato bend


Riff 1 - Intro
|--------------------------------------------------------------------------|
|------------[4^]-------------------------[4^]---------------------[3^]----|
|----3-------[3^]-------4-------3---------[3^]---------------------[3^]----| 
|----1-------[1^]-------2-------1---------[1^]---------5----7------[1^]----| 
|----1------------------2-------1----------------------2----5--------------|
|------------------------------------------------------2----5--------------|

Riff 2                                  
|------------------------------------------------------------|
|--------------------------------------------6"--------------|
|--------------------------------------------6"--------------| 
|--8"----11"-----9"---8"-----4"-----7"-------4"--------------|  
|--6"----9"------7"---6"-----2"-----5"-------4"--------------|
|--6"----9"------7"---6"-----2"-----5"-----------------------|

Riff 2 b                           
|---------------------------------------------------|
|--------------------------6"-----------------------| 
|--------------------------6"-----------------------| 
|-8"------4"-----7"--------4"-----------------------|  
|-6"------2"-----5"--------4"-----------------------|
|-6-------2"-----5"---------------------------------|
[ Tab from: http://www.guitaretab.com/l/leviathan/100754.html ]
Riff 3
|----------------------------------------------------------------|
|----7"---5"----7"----5"-----8"----6"----8"-----6"---------------| 
|----------------------------------------------------------------| 
|----------------------------------------------------------------|  
|----------------------------------------------------------------|
|----------------------------------------------------------------|

|--------------------------------------------|
|--------------------------------------------| 
|--------------------------------------------| Gtr 2
|-3"---1"--3"--1"---4"--2"----4"----2"-------|  
|--------------------------------------------|  
|--------------------------------------------|

Riff 4
|------------------------------------------------------------------------|
|---------6"------4"----------------5"-----3"----------------------------| 
|--3"-----5"------4"-------5"-------4"-----3"----------------------------|
|--1"-----3"------2"-------3"-------2"-----1"----------------------------| 
|--1"----------------------3"--------------------------------------------|
|------------------------------------------------------------------------|

Riff 5 - Fill 1
|----------------------------------------------------------|
|----------------------------------------------------------| 
|----------------------------------------------------------| 
|---2--3-3-------------2--3-3------------------------------|  
|---0--1-1----4-4-4----0--1-1----4-4----3----2---0----1----|
|-------------2-2-2--------------2-2----1----0---0----0--- |

Play Riff 4 x 3

Play Riff 5 x 4


Riff 6 - Fill 2      
|---------------------------------------|
|-------------6-------------------------| 
|---------8-------8---------------------| 
|-----8---------------8------6----------|  
|-0-------------------------------------|
|------------------------0--------------|
 
Riff 7 - Break                       
|----------------------------------------------------------------|
|-----3--4--3-----3--4---3------------------------------3--------| 
|--0-----------0--------------1---3--4--3---1-----1-----3--------| 
|-------------------------------------------------0-----1--------|  
|----------------------------------------------------------------|
|----------------------------------------------------------------|

Outro
|------------------------------------|
|------------------------------------| 
|------------------------------------| 
|------------------------------------|  
|--7"---9"------7"------10"-----8"---|
|--0"---0"------0"------0"------0"---|

Related for Fucking Your Ghost In Chains Of Ice tab