Song name
# A B C D E F G H I J K L M N O P Q R S T U V W X Y Z

Leviathan - Ballad Of Kurt Cobain tab

Help us improve GuitareTab! Take a short survey!
Sup everyone out there, this is Leviathans best song, I think
and this is exactlly how to play it
ok here it is

Artist: Leviathan
Song:   Ballad of Kurt Cobain
Tunning:Standard

E----------------------------------|
B----------------------------------|
G----------------------------------|
D---2------------------------------|
A---2-3-2-0--(x8)------------------|
E--0-------------------------------|

E---------------------------------------|
B---------------------------------------|
G---------------------------------------|
D--9-9-9-9-7-7-7-7--10-10-10-10-6-6-6-6-|
A--9-9-9-9-7-7-7-7--10-10-10-10-6-6-6-6-|
E--7-7-7-7-5-5-5-5---9--9--9--9-4-4-4-4-|

Yeah, that song ROCKS!!!!
Any questions, E-mail me at Nirvana1585@aol.com
For more info on LEVIATHAN e-mail me!!!
Related for Ballad Of Kurt Cobain tab