Song name
# A B C D E F G H I J K L M N O P Q R S T U V W X Y Z

Leviathan - Idiot Sun tab

Band:  leviathan

Album: the tenth sub level of suicide

Song:  the idiot sun

Copyright (c)  moribund cult - 2003

Version 1.0 - 05/01/2007

Transcribed By: inrwtl

Email:          inrwtl@alice.it


.  - palm mute           /  - slide up to
\  - slide down to       ~  - vibrato
h  - hammer on           b  - Bend
p  - pull off            Suffixes for bend
t  - tap                 f  - full bend    h - half bend
ph - pinched harmonic    q  - quarter bend t - tap bend
*  - see comment         ^  - Hold bend    r release bend
x  - Stuccatto           ~  - vibrato bend
,  - slight palm mute    () - ghost note, sustained note
"  - tremolo note        <> - Trill

Tuning E A D G B E


Intro - Fade in

|-------------------------------------------------------------------|
|-------------------------------------------------------------------|
|-------------------------------------------------------------------|
|---6---6---6---6---3---3---3---5---5---5---8---8---8---6---6---6---|
|-3---3---3---3---3---3---3---3---3---3---3---3---3---3---3---3-----|
|-------------------------------------------------------------------|


|-------------------------------------------------------------------|
|-------------------------------------------------------------------|
|-------------------------------------------------------------------|
|---3---3---3---5---5---5---6---6---6---6---6---6---3---3---3---5---|
|-4---4---4---4---4---4---4---4---4---4---4---4---4---4---4---4-----|
|-------------------------------------------------------------------|


|-------------------------------------------------------------------|
|-------------------------------------------------------------------|
|-------------------------------------------------------------------|
|---5---5---8---8---8---6---6---6---3---3---3---5---5---5---6---6---|
|-4---4---4---4---4---4---4---4---3---3---3---3---3---3---3---3-----|
|-------------------------------------------------------------------|


|-------------------------------------------------------------------|
|-------------------------------------------------------------------|
|-------------------------------------------------------------------|
|---6---6---6---6---3---3---3---5---5---5--6--(6)-------------------|
|-3---3---3---3---3---3---3---3---3---3----3--(3)-------------------|
|-------------------------------------------------------------------|


Riff 1

|-------------------------------------------------------------------|
|-------------------------------------------------------------------|
|-----0-----0-----0-----0-----0----0-----0-----0--------------------|
|---6-----6-----3-----3-----4----4-----4-----4----------------------|
|-3-----3-----1-----1-----2----2-----2-----2------------------------|
|-------------------------------------------------------------------|


Riff 2

|-------------------------------------------------------------------|
|-------------------------------------------------------------------|
|-------------------------------------------------------------------|
|-8--8--8--8--8--7--8--7---3-3-3-3-3-4-3-3--------------------------|
|-10-10-10-10-10-10-10-10--6-6-6-6-6-6-6-6--------------------------|
|-10-10-10-10-10-10-10-10--6-6-6-6-6-6-6-6--------------------------|


Riff 3

|-------------------------------------------------------------------|
|-------------------------------------------------------------------|
|-----------------------2-2-2-2-2-3-2-2-----------------------------|
|-1-1-1-1-1--5-5-5-5-5--5-5-5-5-5-5-5-5-----------------------------|
|-3-3-3-3-3--6-6-6-6-6--5-5-5-5-5-5-5-5-----------------------------|
|-------------------------------------------------------------------|


Riff 3 - Fill 1

|-------------------------------------------------------------------|
|-------------------------------------------------------------------|
|-------------------------------------------------------------------|
|-1-1-1-1-1--5-5-5-5-5----------------------------------------------|
|-3-3-3-3-3--6-6-6-6-6--6-6-6-6-6-6-6-------------------------------|
|-----------------------4-4-4-4-4-4-4-------------------------------|


Riff 4

|-------------------------------------------------------------------|
|-------------------------------------------------------------------|
|----------------------------8----8---------8----8------------------|
|-12--15--12--11--14--11--12---12---10---12---12---10---------------|
|-10--13--10--9---12--9---------------------------------------------|
|-------------------------------------------------------------------|


Riff 4 - Fill 1

|-------------------------------------------------------------------|
|-------------------------------------------------------------------|
|----------------------------8----8----------8-------8--8---(8)-----|
|-12--15--12--11--14--11--12---12---10----12------12----12--(12)----|
|-10--13--10--9---12--9----------------11------11-------10--(10)----|
|-------------------------------------------------------------------|


END
Tap to rate this tab
# A B C D E F G H I J K L M N O P Q R S T U V W X Y Z